  0
SECTION
  2
HEADER
  9
$ACADVER
  1
AC1014
  9
$ACADMAINTVER
 70
     9
  9
$DWGCODEPAGE
  3
ANSI_932
  9
$INSBASE
 10
0.0
 20
0.0
 30
0.0
  9
$EXTMIN
 10
5.498658210852568
 20
4.114929895516183
 30
-0.0015258207003583
  9
$EXTMAX
 10
41.67572075230509
 20
24.25904883590885
 30
0.0000000349246037
  9
$LIMMIN
 10
0.0
 20
0.0
  9
$LIMMAX
 10
420.0
 20
297.0
  9
$ORTHOMODE
 70
     1
  9
$REGENMODE
 70
     1
  9
$FILLMODE
 70
     1
  9
$QTEXTMODE
 70
     0
  9
$MIRRTEXT
 70
     0
  9
$DRAGMODE
 70
     2
  9
$LTSCALE
 40
2.0
  9
$OSMODE
 70
   191
  9
$ATTMODE
 70
     1
  9
$TEXTSIZE
 40
2.5
  9
$TRACEWID
 40
1.0
  9
$TEXTSTYLE
  7
STANDARD
  9
$CLAYER
  8
OBJECT
  9
$CELTYPE
  6
BYLAYER
  9
$CECOLOR
 62
   256
  9
$CELTSCALE
 40
1.0
  9
$DELOBJ
 70
     1
  9
$DISPSILH
 70
     0
  9
$DIMSCALE
 40
0.4600000000000001
  9
$DIMASZ
 40
2.5
  9
$DIMEXO
 40
0.625
  9
$DIMDLI
 40
1.0
  9
$DIMRND
 40
0.0
  9
$DIMDLE
 40
0.0
  9
$DIMEXE
 40
0.625
  9
$DIMTP
 40
0.0
  9
$DIMTM
 40
0.0
  9
$DIMTXT
 40
2.5
  9
$DIMCEN
 40
0.0
  9
$DIMTSZ
 40
0.0
  9
$DIMTOL
 70
     0
  9
$DIMLIM
 70
     0
  9
$DIMTIH
 70
     0
  9
$DIMTOH
 70
     0
  9
$DIMSE1
 70
     0
  9
$DIMSE2
 70
     0
  9
$DIMTAD
 70
     1
  9
$DIMZIN
 70
     8
  9
$DIMBLK
  1

  9
$DIMASO
 70
     1
  9
$DIMSHO
 70
     1
  9
$DIMPOST
  1

  9
$DIMAPOST
  1

  9
$DIMALT
 70
     0
  9
$DIMALTD
 70
     4
  9
$DIMALTF
 40
0.0394
  9
$DIMLFAC
 40
1.0
  9
$DIMTOFL
 70
     1
  9
$DIMTVP
 40
0.0
  9
$DIMTIX
 70
     0
  9
$DIMSOXD
 70
     0
  9
$DIMSAH
 70
     0
  9
$DIMBLK1
  1

  9
$DIMBLK2
  1

  9
$DIMSTYLE
  2
STANDARD
  9
$DIMCLRD
 70
     3
  9
$DIMCLRE
 70
     3
  9
$DIMCLRT
 70
     3
  9
$DIMTFAC
 40
1.0
  9
$DIMGAP
 40
0.625
  9
$DIMJUST
 70
     0
  9
$DIMSD1
 70
     0
  9
$DIMSD2
 70
     0
  9
$DIMTOLJ
 70
     1
  9
$DIMTZIN
 70
     8
  9
$DIMALTZ
 70
     0
  9
$DIMALTTZ
 70
     0
  9
$DIMFIT
 70
     3
  9
$DIMUPT
 70
     0
  9
$DIMUNIT
 70
     2
  9
$DIMDEC
 70
     2
  9
$DIMTDEC
 70
     2
  9
$DIMALTU
 70
     8
  9
$DIMALTTD
 70
     4
  9
$DIMTXSTY
  7
STANDARD
  9
$DIMAUNIT
 70
     0
  9
$LUNITS
 70
     2
  9
$LUPREC
 70
     4
  9
$SKETCHINC
 40
1.0
  9
$FILLETRAD
 40
0.5
  9
$AUNITS
 70
     0
  9
$AUPREC
 70
     0
  9
$MENU
  1
.
  9
$ELEVATION
 40
0.0
  9
$PELEVATION
 40
0.0
  9
$THICKNESS
 40
0.0
  9
$LIMCHECK
 70
     0
  9
$BLIPMODE
 70
     0
  9
$CHAMFERA
 40
0.0
  9
$CHAMFERB
 40
0.0
  9
$CHAMFERC
 40
20.0
  9
$CHAMFERD
 40
0.0
  9
$SKPOLY
 70
     0
  9
$TDCREATE
 40
2452136.870343981
  9
$TDUPDATE
 40
2454518.423764097
  9
$TDINDWG
 40
10.8284535417
  9
$TDUSRTIMER
 40
10.8284535417
  9
$USRTIMER
 70
     1
  9
$ANGBASE
 50
0.0
  9
$ANGDIR
 70
     0
  9
$PDMODE
 70
     0
  9
$PDSIZE
 40
0.0
  9
$PLINEWID
 40
0.3
  9
$COORDS
 70
     0
  9
$SPLFRAME
 70
     0
  9
$SPLINETYPE
 70
     6
  9
$SPLINESEGS
 70
     8
  9
$ATTDIA
 70
     0
  9
$ATTREQ
 70
     1
  9
$HANDLING
 70
 22529
  9
$HANDSEED
  5
181
  9
$SURFTAB1
 70
     6
  9
$SURFTAB2
 70
     6
  9
$SURFTYPE
 70
     6
  9
$SURFU
 70
     6
  9
$SURFV
 70
     6
  9
$UCSNAME
  2

  9
$UCSORG
 10
0.0
 20
0.0
 30
0.0
  9
$UCSXDIR
 10
1.0
 20
0.0
 30
0.0
  9
$UCSYDIR
 10
0.0
 20
1.0
 30
0.0
  9
$PUCSNAME
  2

  9
$PUCSORG
 10
0.0
 20
0.0
 30
0.0
  9
$PUCSXDIR
 10
1.0
 20
0.0
 30
0.0
  9
$PUCSYDIR
 10
0.0
 20
1.0
 30
0.0
  9
$USERI1
 70
     0
  9
$USERI2
 70
     0
  9
$USERI3
 70
     0
  9
$USERI4
 70
     0
  9
$USERI5
 70
     0
  9
$USERR1
 40
0.0
  9
$USERR2
 40
0.0
  9
$USERR3
 40
0.0
  9
$USERR4
 40
0.0
  9
$USERR5
 40
0.0
  9
$WORLDVIEW
 70
     1
  9
$SHADEDGE
 70
     3
  9
$SHADEDIF
 70
    70
  9
$TILEMODE
 70
     1
  9
$MAXACTVP
 70
    48
  9
$PINSBASE
 10
0.0
 20
0.0
 30
0.0
  9
$PLIMCHECK
 70
     0
  9
$PEXTMIN
 10
0.9598916571909988
 20
0.8043799099959727
 30
0.0
  9
$PEXTMAX
 10
8.639024914718985
 20
7.239419189963752
 30
0.0
  9
$PLIMMIN
 10
-0.7005418191744587
 20
-0.2281003861915408
  9
$PLIMMAX
 10
10.29945794052965
 20
8.271899373512567
  9
$UNITMODE
 70
     0
  9
$VISRETAIN
 70
     1
  9
$PLINEGEN
 70
     0
  9
$PSLTSCALE
 70
     1
  9
$TREEDEPTH
 70
  3020
  9
$PICKSTYLE
 70
     1
  9
$CMLSTYLE
  2
STANDARD
  9
$CMLJUST
 70
     0
  9
$CMLSCALE
 40
20.0
  9
$PROXYGRAPHICS
 70
     1
  9
$MEASUREMENT
 70
     0
  0
ENDSEC
  0
SECTION
  2
CLASSES
  0
CLASS
  1
DICTIONARYVAR
  2
AcDbDictionaryVar
  3
AutoCAD 2000
 90
        0
280
     0
281
     0
  0
CLASS
  1
HATCH
  2
AcDbHatch
  3
AutoCAD 2000
 90
        0
280
     0
281
     1
  0
CLASS
  1
XRECORD
  2
AcDbXrecord
  3
AutoCAD 2000
 90
        0
280
     0
281
     0
  0
CLASS
  1
LWPOLYLINE
  2
AcDbPolyline
  3
AutoCAD 2000
 90
        0
280
     0
281
     1
  0
CLASS
  1
ACDBDICTIONARYWDFLT
  2
AcDbDictionaryWithDefault
  3
AutoCAD 2000
 90
        0
280
     0
281
     0
  0
CLASS
  1
ACDBPLACEHOLDER
  2
AcDbPlaceHolder
  3
AutoCAD 2000
 90
        0
280
     0
281
     0
  0
CLASS
  1
LAYOUT
  2
AcDbLayout
  3
AutoCAD 2000
 90
        0
280
     0
281
     0
  0
CLASS
  1
DIMASSOC
  2
AcDbDimAssoc
  3
"AcDbDimAssoc|Product Desc:     AcDim ARX App For Dimension|Company:          Autodesk, Inc.|WEB Address:      www.autodesk.com"
 90
        0
280
     0
281
     0
  0
CLASS
  1
PLOTSETTINGS
  2
AcDbPlotSettings
  3
AutoCAD 2000
 90
        0
280
     0
281
     0
  0
CLASS
  1
LONG_TRANSACTION
  2
AcDbLongTransaction
  3
AutoCAD 2000
 90
        0
280
     0
281
     0
  0
CLASS
  1
LWPOLYLINE
  2
AcDbPolyline
  3
AutoCAD 2000
 90
        0
280
     0
281
     1
  0
CLASS
  1
HATCH
  2
AcDbHatch
  3
AutoCAD 2000
 90
        0
280
     0
281
     1
  0
CLASS
  1
XRECORD
  2
AcDbXrecord
  3
AutoCAD 2000
 90
        0
280
     0
281
     0
  0
ENDSEC
  0
SECTION
  2
TABLES
  0
TABLE
  2
VPORT
  5
1C
330
0
100
AcDbSymbolTable
 70
    10
  0
VPORT
  5
15B
330
1C
100
AcDbSymbolTableRecord
100
AcDbViewportTableRecord
  2
*ACTIVE
 70
     0
 10
0.0
 20
0.0
 11
1.0
 21
1.0
 12
23.58718948157883
 22
14.18698936571251
 13
0.0
 23
0.0
 14
10.0
 24
10.0
 15
10.0
 25
10.0
 16
0.0
 26
0.0
 36
1.0
 17
0.0
 27
0.0
 37
0.0
 40
48.68761950717512
 41
1.493654822335025
 42
50.0
 43
0.0
 44
0.0
 50
0.0
 51
0.0
 71
     0
 72
 20000
 73
     1
 74
     1
 75
     0
 76
     0
 77
     0
 78
     0
  0
ENDTAB
  0
TABLE
  2
LTYPE
  5
17
330
0
100
AcDbSymbolTable
 70
     1
  0
LTYPE
  5
18
330
17
100
AcDbSymbolTableRecord
100
AcDbLinetypeTableRecord
  2
BYBLOCK
 70
     0
  3

 72
    65
 73
     0
 40
0.0
  0
LTYPE
  5
19
330
17
100
AcDbSymbolTableRecord
100
AcDbLinetypeTableRecord
  2
BYLAYER
 70
     0
  3

 72
    65
 73
     0
 40
0.0
  0
LTYPE
  5
8
330
17
100
AcDbSymbolTableRecord
100
AcDbLinetypeTableRecord
  2
CONTINUOUS
 70
     0
  3
Solid line
 72
    65
 73
     0
 40
0.0
  0
ENDTAB
  0
TABLE
  2
LAYER
  5
10
102
{ACAD_XDICTIONARY
360
11
102
}
330
0
100
AcDbSymbolTable
 70
     4
  0
LAYER
  5
4
330
10
100
AcDbSymbolTableRecord
100
AcDbLayerTableRecord
  2
0
 70
     0
 62
     7
  6
CONTINUOUS
  0
LAYER
  5
3F
330
10
100
AcDbSymbolTableRecord
100
AcDbLayerTableRecord
  2
TEXT
 70
     0
 62
     3
  6
CONTINUOUS
  0
LAYER
  5
27
330
10
100
AcDbSymbolTableRecord
100
AcDbLayerTableRecord
  2
OBJECT
 70
     0
 62
     7
  6
CONTINUOUS
  0
LAYER
  5
38
330
10
100
AcDbSymbolTableRecord
100
AcDbLayerTableRecord
  2
DEFPOINTS
 70
     0
 62
     2
  6
CONTINUOUS
  0
ENDTAB
  0
TABLE
  2
STYLE
  5
14
330
0
100
AcDbSymbolTable
 70
     2
  0
STYLE
  5
15
330
14
100
AcDbSymbolTableRecord
100
AcDbTextStyleTableRecord
  2
STANDARD
 70
     0
 40
0.0
 41
1.0
 50
0.0
 71
     0
 42
2.5
  3
simplex.shx
  4
bigfont.shx
  0
STYLE
  5
22
330
14
100
AcDbSymbolTableRecord
100
AcDbTextStyleTableRecord
  2
ROMANS
 70
     0
 40
0.0
 41
1.0
 50
0.0
 71
     0
 42
2.0
  3
romans.shx
  4
bigfont.shx
  0
ENDTAB
  0
TABLE
  2
VIEW
  5
1A
330
0
100
AcDbSymbolTable
 70
     0
  0
ENDTAB
  0
TABLE
  2
UCS
  5
1B
330
0
100
AcDbSymbolTable
 70
     0
  0
ENDTAB
  0
TABLE
  2
APPID
  5
1E
330
0
100
AcDbSymbolTable
 70
     1
  0
APPID
  5
1F
330
1E
100
AcDbSymbolTableRecord
100
AcDbRegAppTableRecord
  2
ACAD
 70
     0
  0
ENDTAB
  0
TABLE
  2
DIMSTYLE
  5
20
330
0
100
AcDbSymbolTable
 70
     1
  0
DIMSTYLE
105
21
330
20
100
AcDbSymbolTableRecord
100
AcDbDimStyleTableRecord
  2
STANDARD
 70
     0
  3

  4

  5

  6

  7

 40
0.4600000000000001
 41
2.5
 42
0.625
 43
1.0
 44
0.625
 45
0.0
 46
0.0
 47
0.0
 48
0.0
140
2.5
141
0.0
142
0.0
143
0.0394
144
1.0
145
0.0
146
1.0
147
0.625
 71
     0
 72
     0
 73
     0
 74
     0
 75
     0
 76
     0
 77
     1
 78
     8
170
     0
171
     4
172
     1
173
     0
174
     0
175
     0
176
     3
177
     3
178
     3
270
     2
271
     2
272
     2
273
     8
274
     4
340
15
275
     0
280
     0
281
     0
282
     0
283
     1
284
     8
285
     0
286
     0
287
     3
288
     0
  0
ENDTAB
  0
TABLE
  2
BLOCK_RECORD
  5
1
330
0
100
AcDbSymbolTable
 70
     5
  0
BLOCK_RECORD
  5
2
102
{ACAD_XDICTIONARY
360
17D
102
}
330
1
100
AcDbSymbolTableRecord
100
AcDbBlockTableRecord
  2
*MODEL_SPACE
  0
BLOCK_RECORD
  5
C
102
{ACAD_XDICTIONARY
360
17F
102
}
330
1
100
AcDbSymbolTableRecord
100
AcDbBlockTableRecord
  2
*PAPER_SPACE
  0
BLOCK_RECORD
  5
129
330
1
100
AcDbSymbolTableRecord
100
AcDbBlockTableRecord
  2
*D4
  0
ENDTAB
  0
ENDSEC
  0
SECTION
  2
BLOCKS
  0
BLOCK
  5
3
330
2
100
AcDbEntity
  8
0
100
AcDbBlockBegin
  2
*MODEL_SPACE
 70
     2
 10
0.0
 20
0.0
 30
0.0
  3
*MODEL_SPACE
  1

  0
ENDBLK
  5
9
330
2
100
AcDbEntity
  8
0
100
AcDbBlockEnd
  0
BLOCK
  5
D
330
C
100
AcDbEntity
 67
     1
  8
0
100
AcDbBlockBegin
  2
*PAPER_SPACE
 70
     0
 10
0.0
 20
0.0
 30
0.0
  3
*PAPER_SPACE
  1

  0
ENDBLK
  5
E
330
C
100
AcDbEntity
 67
     1
  8
0
100
AcDbBlockEnd
  0
BLOCK
  5
133
330
129
100
AcDbEntity
  8
0
100
AcDbBlockBegin
  2
*D4
 70
     1
 10
0.0
 20
0.0
 30
0.0
  3
*D4
  1

  0
LINE
  5
12A
330
129
100
AcDbEntity
  8
OBJECT
 62
     3
100
AcDbLine
 10
6.220353555834662
 20
14.22445756084099
 30
0.0
 11
6.220353555834662
 21
16.7576855738906
 31
0.0
  0
LINE
  5
12B
330
129
100
AcDbEntity
  8
OBJECT
 62
     3
100
AcDbLine
 10
15.72035355583489
 20
13.32445756084101
 30
0.0
 11
15.72035355583489
 21
16.7576855738906
 31
0.0
  0
LINE
  5
12C
330
129
100
AcDbEntity
  8
OBJECT
 62
     3
100
AcDbLine
 10
7.370353555834663
 20
16.4701855738906
 30
0.0
 11
14.57035355583489
 21
16.4701855738906
 31
0.0
  0
SOLID
  5
12D
330
129
100
AcDbEntity
  8
OBJECT
 62
     3
100
AcDbTrace
 10
7.370353555834663
 20
16.66185224055727
 30
0.0
 11
7.370353555834663
 21
16.27851890722393
 31
0.0
 12
6.220353555834662
 22
16.4701855738906
 32
0.0
 13
6.220353555834662
 23
16.4701855738906
 33
0.0
  0
SOLID
  5
12E
330
129
100
AcDbEntity
  8
OBJECT
 62
     3
100
AcDbTrace
 10
14.57035355583489
 20
16.66185224055727
 30
0.0
 11
14.57035355583489
 21
16.27851890722393
 31
0.0
 12
15.72035355583489
 22
16.4701855738906
 32
0.0
 13
15.72035355583489
 23
16.4701855738906
 33
0.0
  0
MTEXT
  5
12F
330
129
100
AcDbEntity
  8
OBJECT
 62
     3
100
AcDbMText
 10
10.97035355583477
 20
17.3326855738906
 30
0.0
 40
1.15
 41
0.0
 71
     5
 72
     1
  1
\A1;9.5
1001
ACAD
1000
MTEXTBEGIN
1070
    73
1070
     1
1070
    44
1040
1.0
1070
    74
1070
     0
1000
MTEXTEND
  0
POINT
  5
130
330
129
100
AcDbEntity
  8
DEFPOINTS
 62
     0
100
AcDbPoint
 10
6.220353555834662
 20
13.93695756084099
 30
0.0
  0
POINT
  5
131
330
129
100
AcDbEntity
  8
DEFPOINTS
 62
     0
100
AcDbPoint
 10
15.72035355583489
 20
13.03695756084101
 30
0.0
  0
POINT
  5
132
330
129
100
AcDbEntity
  8
DEFPOINTS
 62
     0
100
AcDbPoint
 10
15.72035355583489
 20
16.4701855738906
 30
0.0
  0
ENDBLK
  5
134
330
129
100
AcDbEntity
  8
0
100
AcDbBlockEnd
  0
ENDSEC
  0
SECTION
  2
ENTITIES
  0
LINE
  5
29
330
2
100
AcDbEntity
  8
OBJECT
100
AcDbLine
 10
33.39380599761762
 20
12.03695756084084
 30
0.0
 11
33.39380599761739
 21
6.036957560840846
 31
0.0
  0
LINE
  5
2A
330
2
100
AcDbEntity
  8
OBJECT
100
AcDbLine
 10
36.79380599761771
 20
13.03695756084067
 30
0.0
 11
36.79380599761794
 21
9.036957560840846
 31
0.0
  0
LINE
  5
2B
330
2
100
AcDbEntity
  8
OBJECT
100
AcDbLine
 10
36.21033592831782
 20
13.03695756084067
 30
0.0
 11
36.21033592831782
 21
9.036957560840676
 31
0.0
  0
LINE
  5
2C
330
2
100
AcDbEntity
  8
OBJECT
100
AcDbLine
 10
31.09380599761766
 20
11.13695756084098
 30
0.0
 11
31.09380599761766
 21
6.936957560840937
 31
0.0
  0
LINE
  5
2D
330
2
100
AcDbEntity
  8
OBJECT
100
AcDbLine
 10
32.79380599761771
 20
11.13695756084081
 30
0.0
 11
32.79380599761748
 21
6.936957560841022
 31
0.0
  0
LINE
  5
2E
330
2
100
AcDbEntity
  8
OBJECT
100
AcDbLine
 10
31.36516486430241
 20
11.13695756084098
 30
0.0
 11
31.36516486430241
 21
6.936957560840937
 31
0.0
  0
LINE
  5
3D
330
2
100
AcDbEntity
  8
OBJECT
100
AcDbLine
 10
37.99380599761752
 20
13.93695756084059
 30
0.0
 11
37.99380599761752
 21
4.136957560840755
 31
0.0
  0
LINE
  5
5B
330
2
100
AcDbEntity
  8
OBJECT
100
AcDbLine
 10
36.79380599761771
 20
13.03695756084059
 30
0.0
 11
31.09380599761789
 21
13.03695756084067
 31
0.0
  0
LWPOLYLINE
  5
5C
330
2
100
AcDbEntity
  8
OBJECT
100
AcDbPolyline
 90
        4
 70
     1
 43
0.0
 10
34.78386840144821
 20
11.14855436041409
 10
35.59052211176686
 20
11.14855436041409
 10
35.59052211176686
 20
11.92536076126646
 10
34.78386840144821
 20
11.92536076126646
  0
LINE
  5
5D
330
2
100
AcDbEntity
  8
OBJECT
100
AcDbLine
 10
37.99380599761752
 20
13.93695756084071
 30
0.0
 11
33.37305514131822
 21
13.93695756084071
 31
0.0
  0
TEXT
  5
6D
330
2
100
AcDbEntity
  8
TEXT
100
AcDbText
 10
40.63658952917399
 20
11.49090425868916
 30
0.0
 40
1.5
  1
1
100
AcDbText
  0
LINE
  5
7B
330
2
100
AcDbEntity
  8
OBJECT
100
AcDbLine
 10
33.39380599761762
 20
12.03695756084084
 30
0.0
 11
31.09380599761766
 21
12.03695756084073
 31
0.0
  0
LINE
  5
7C
330
2
100
AcDbEntity
  8
OBJECT
100
AcDbLine
 10
33.39380599761739
 20
11.13695756084075
 30
0.0
 11
31.09380599761766
 21
11.13695756084098
 31
0.0
  0
LINE
  5
7D
330
2
100
AcDbEntity
  8
OBJECT
100
AcDbLine
 10
32.79380599761748
 20
10.13695756084098
 30
0.0
 11
33.39380599761739
 21
10.13695756084098
 31
0.0
  0
LINE
  5
7E
330
2
100
AcDbEntity
  8
OBJECT
100
AcDbLine
 10
33.09380599761789
 20
13.49752371320053
 30
0.0
 11
33.37305514131822
 21
13.93695756084079
 31
0.0
  0
LINE
  5
7F
330
2
100
AcDbEntity
  8
OBJECT
100
AcDbLine
 10
31.09380599761789
 20
13.03695756084067
 30
0.0
 11
31.09380599761766
 21
12.03695756084073
 31
0.0
  0
LINE
  5
80
330
2
100
AcDbEntity
  8
OBJECT
100
AcDbLine
 10
31.9541814257675
 20
13.03695756084064
 30
0.0
 11
31.9541814257675
 21
13.93695756084071
 31
0.0
  0
LINE
  5
81
330
2
100
AcDbEntity
  8
OBJECT
100
AcDbLine
 10
33.09380599761789
 20
13.49752371320053
 30
0.0
 11
32.81455685391824
 21
13.93695756084085
 31
0.0
  0
LINE
  5
82
330
2
100
AcDbEntity
  8
OBJECT
100
AcDbLine
 10
32.81455685391824
 20
13.93695756084071
 30
0.0
 11
31.9541814257675
 21
13.93695756084071
 31
0.0
  0
LINE
  5
83
330
2
100
AcDbEntity
  8
OBJECT
100
AcDbLine
 10
31.36516486430264
 20
13.03695756084067
 30
0.0
 11
31.36516486430241
 21
12.03695756084073
 31
0.0
  0
LINE
  5
84
330
2
100
AcDbEntity
  8
OBJECT
100
AcDbLine
 10
36.79380599761657
 20
5.036957560841102
 30
0.0
 11
31.09380599761675
 21
5.036957560842637
 31
0.0
  0
LWPOLYLINE
  5
85
330
2
100
AcDbEntity
  8
OBJECT
100
AcDbPolyline
 90
        4
 70
     1
 43
0.0
 10
34.78386840144821
 20
8.648554360414493
 10
35.59052211176686
 20
8.648554360414493
 10
35.59052211176686
 20
9.425360761266858
 10
34.78386840144821
 20
9.425360761266858
  0
LWPOLYLINE
  5
86
330
2
100
AcDbEntity
  8
OBJECT
100
AcDbPolyline
 90
        4
 70
     1
 43
0.0
 10
34.78386840144821
 20
6.925360761267256
 10
35.59052211176686
 20
6.925360761267256
 10
35.59052211176686
 20
6.148554360414891
 10
34.78386840144821
 20
6.148554360414891
  0
LINE
  5
87
330
2
100
AcDbEntity
  8
OBJECT
100
AcDbLine
 10
37.99380599761752
 20
4.136957560840755
 30
0.0
 11
31.954181425765
 21
4.136957560842375
 31
0.0
  0
LINE
  5
88
330
2
100
AcDbEntity
  8
OBJECT
100
AcDbLine
 10
36.21033592831782
 20
5.036957560840676
 30
0.0
 11
36.21033592831782
 21
9.036957560840676
 31
0.0
  0
LINE
  5
89
330
2
100
AcDbEntity
  8
OBJECT
100
AcDbLine
 10
36.79380599761771
 20
5.036957560840676
 30
0.0
 11
36.79380599761794
 21
9.036957560840505
 31
0.0
  0
LINE
  5
8A
330
2
100
AcDbEntity
  8
OBJECT
100
AcDbLine
 10
31.954181425765
 20
4.136957560842375
 30
0.0
 11
31.954181425765
 21
5.036957560842409
 31
0.0
  0
LINE
  5
8B
330
2
100
AcDbEntity
  8
OBJECT
100
AcDbLine
 10
33.39380599761739
 20
6.036957560840733
 30
0.0
 11
31.09380599761744
 21
6.03695756084096
 31
0.0
  0
LINE
  5
8C
330
2
100
AcDbEntity
  8
OBJECT
100
AcDbLine
 10
33.39380599761739
 20
6.936957560841051
 30
0.0
 11
31.09380599761766
 21
6.936957560840937
 31
0.0
  0
LINE
  5
8D
330
2
100
AcDbEntity
  8
OBJECT
100
AcDbLine
 10
32.79380599761748
 20
7.936957560840937
 30
0.0
 11
33.39380599761739
 21
7.936957560840824
 31
0.0
  0
LINE
  5
8E
330
2
100
AcDbEntity
  8
OBJECT
100
AcDbLine
 10
31.09380599761744
 20
6.03695756084096
 30
0.0
 11
31.09380599761744
 21
5.036957560842637
 31
0.0
  0
LINE
  5
8F
330
2
100
AcDbEntity
  8
OBJECT
100
AcDbLine
 10
31.36516486430219
 20
6.03695756084096
 30
0.0
 11
31.36516486430219
 21
5.036957560842637
 31
0.0
  0
TEXT
  5
90
330
2
100
AcDbEntity
  8
OBJECT
100
AcDbText
 10
5.507185229749666
 20
21.73855930378923
 30
0.0
 40
2.5
  1
XAP-03V-1　（JST）
100
AcDbText
  0
TEXT
  5
9B
330
2
100
AcDbEntity
  8
TEXT
100
AcDbText
 10
40.63658952917399
 20
8.605610732916602
 30
0.0
 40
1.5
  1
2
100
AcDbText
  0
TEXT
  5
9C
330
2
100
AcDbEntity
  8
TEXT
100
AcDbText
 10
40.63658952917399
 20
5.482979166324668
 30
0.0
 40
1.5
  1
3
100
AcDbText
  0
LINE
  5
9D
330
2
100
AcDbEntity
  8
OBJECT
100
AcDbLine
 10
7.020353555834617
 20
4.13695756084104
 30
0.0
 11
7.020353555834617
 21
5.036957560841017
 31
0.0
  0
LINE
  5
9E
330
2
100
AcDbEntity
  8
OBJECT
100
AcDbLine
 10
6.220353555834662
 20
4.13695756084104
 30
0.0
 11
6.220353555834662
 21
13.93695756084099
 31
0.0
  0
LINE
  5
9F
330
2
100
AcDbEntity
  8
OBJECT
100
AcDbLine
 10
6.220353555834662
 20
6.036957560841017
 30
0.0
 11
15.72035355583466
 21
6.036957560841017
 31
0.0
  0
LINE
  5
A0
330
2
100
AcDbEntity
  8
OBJECT
100
AcDbLine
 10
6.220353555834662
 20
6.936957560840994
 30
0.0
 11
15.72035355583443
 21
6.93695756084088
 31
0.0
  0
LINE
  5
A1
330
2
100
AcDbEntity
  8
OBJECT
100
AcDbLine
 10
7.020353555834617
 20
5.036957560841017
 30
0.0
 11
15.72035355583466
 21
5.036957560841017
 31
0.0
  0
LINE
  5
A2
330
2
100
AcDbEntity
  8
OBJECT
100
AcDbLine
 10
6.220353555834662
 20
12.03695756084101
 30
0.0
 11
15.72035355583466
 21
12.03695756084101
 31
0.0
  0
LINE
  5
A3
330
2
100
AcDbEntity
  8
OBJECT
100
AcDbLine
 10
6.220353555834662
 20
11.13695756084104
 30
0.0
 11
15.72035355583466
 21
11.13695756084092
 31
0.0
  0
LINE
  5
A4
330
2
100
AcDbEntity
  8
OBJECT
100
AcDbLine
 10
7.020353555834617
 20
13.03695756084101
 30
0.0
 11
15.72035355583466
 21
13.03695756084101
 31
0.0
  0
LINE
  5
A5
330
2
100
AcDbEntity
  8
OBJECT
100
AcDbLine
 10
15.72035355583466
 20
5.036957560841017
 30
0.0
 11
15.72035355583489
 21
13.03695756084101
 31
0.0
  0
LINE
  5
A6
330
2
100
AcDbEntity
  8
OBJECT
100
AcDbLine
 10
7.020353555834617
 20
9.786957560841017
 30
0.0
 11
10.72035355583466
 21
9.786957560841017
 31
0.0
  0
LINE
  5
A7
330
2
100
AcDbEntity
  8
OBJECT
100
AcDbLine
 10
7.020353555834617
 20
8.286957560841017
 30
0.0
 11
10.72035355583466
 21
8.286957560841017
 31
0.0
  0
TEXT
  5
A8
330
2
100
AcDbEntity
  8
TEXT
100
AcDbText
 10
10.9645440106849
 20
12.75153311648114
 30
0.0
 40
1.5
  1
1
 50
270.0
100
AcDbText
  0
LINE
  5
A9
330
2
100
AcDbEntity
  8
OBJECT
100
AcDbLine
 10
10.72035355583466
 20
5.036957560841017
 30
0.0
 11
10.72035355583466
 21
6.036957560841017
 31
0.0
  0
LINE
  5
AA
330
2
100
AcDbEntity
  8
OBJECT
100
AcDbLine
 10
10.72035355583466
 20
8.286957560841017
 30
0.0
 11
10.72035355583466
 21
9.786957560841017
 31
0.0
  0
LINE
  5
AB
330
2
100
AcDbEntity
  8
OBJECT
100
AcDbLine
 10
10.72035355583466
 20
13.03695756084101
 30
0.0
 11
10.72035355583466
 21
12.03695756084101
 31
0.0
  0
LINE
  5
AC
330
2
100
AcDbEntity
  8
OBJECT
100
AcDbLine
 10
6.220353555834662
 20
13.93695756084099
 30
0.0
 11
7.020353555834844
 21
13.93695756084111
 31
0.0
  0
LINE
  5
AD
330
2
100
AcDbEntity
  8
OBJECT
100
AcDbLine
 10
7.020353555834617
 20
13.03695756084101
 30
0.0
 11
7.020353555834844
 21
13.93695756084099
 31
0.0
  0
LINE
  5
AE
330
2
100
AcDbEntity
  8
OBJECT
100
AcDbLine
 10
7.020353555834844
 20
6.936957560841108
 30
0.0
 11
7.020353555834617
 21
8.286957560841017
 31
0.0
  0
LINE
  5
AF
330
2
100
AcDbEntity
  8
OBJECT
100
AcDbLine
 10
7.020353555834617
 20
9.786957560841017
 30
0.0
 11
7.020353555834617
 21
11.13695756084115
 31
0.0
  0
LINE
  5
B0
330
2
100
AcDbEntity
  8
OBJECT
100
AcDbLine
 10
10.22035355583466
 20
13.03695756084101
 30
0.0
 11
10.22035355583466
 21
13.43695756084099
 31
0.0
  0
LINE
  5
B1
330
2
100
AcDbEntity
  8
OBJECT
100
AcDbLine
 10
10.22035355583466
 20
4.63695756084104
 30
0.0
 11
10.22035355583466
 21
5.036957560841017
 31
0.0
  0
LINE
  5
B2
330
2
100
AcDbEntity
  8
OBJECT
100
AcDbLine
 10
7.020353555834617
 20
13.43695756084099
 30
0.0
 11
10.22035355583466
 21
13.43695756084099
 31
0.0
  0
LINE
  5
B3
330
2
100
AcDbEntity
  8
OBJECT
100
AcDbLine
 10
7.020353555834617
 20
4.63695756084104
 30
0.0
 11
10.22035355583466
 21
4.63695756084104
 31
0.0
  0
LINE
  5
B4
330
2
100
AcDbEntity
  8
OBJECT
100
AcDbLine
 10
6.220353555834662
 20
4.13695756084104
 30
0.0
 11
7.020353555834617
 21
4.13695756084104
 31
0.0
  0
ENDSEC
  0
SECTION
  2
OBJECTS
  0
DICTIONARY
  5
7
330
0
100
AcDbDictionary
  3
ACAD_GROUP
350
24
  3
ACAD_LAYOUT
350
B
  3
ACAD_MLINESTYLE
350
25
  3
ACAD_PLOTSETTINGS
350
26
  3
ACAD_PLOTSTYLENAME
350
6
  3
ACDBHEADERROUNDTRIPXREC
350
15C
  3
ACDBVARIABLEDICTIONARY
350
94
  0
DICTIONARY
  5
11
330
10
100
AcDbDictionary
280
     1
  3
ACAD_LAYERFILTERS
360
12
  3
ACAD_LAYERSTATES
360
13
  0
DICTIONARY
  5
17D
330
2
100
AcDbDictionary
280
     1
  3
ACAD_LAYOUTSELFREF
360
17E
  0
DICTIONARY
  5
17F
330
C
100
AcDbDictionary
280
     1
  3
ACAD_LAYOUTSELFREF
360
180
  0
DICTIONARY
  5
24
102
{ACAD_REACTORS
330
7
102
}
330
7
100
AcDbDictionary
  0
DICTIONARY
  5
B
102
{ACAD_REACTORS
330
7
102
}
330
7
100
AcDbDictionary
  0
DICTIONARY
  5
25
102
{ACAD_REACTORS
330
7
102
}
330
7
100
AcDbDictionary
  3
STANDARD
350
28
  0
DICTIONARY
  5
26
102
{ACAD_REACTORS
330
7
102
}
330
7
100
AcDbDictionary
  0
ACDBDICTIONARYWDFLT
  5
6
102
{ACAD_REACTORS
330
7
102
}
330
7
100
AcDbDictionary
281
     1
  3
Normal
350
5
100
AcDbDictionaryWithDefault
340
5
  0
DICTIONARY
  5
15C
102
{ACAD_REACTORS
330
7
102
}
330
7
100
AcDbDictionary
  3
CEPSNTYPE
350
166
  3
DIMSTYLEDATA
350
16A
  3
FINGERPRINTGUID
350
167
  3
HYPERLINKBASE
350
15F
  3
INSUNITS
350
165
  3
LAYOUTDICT
350
161
  3
LWETCUNION
350
164
  3
PLOTSETDICT
350
162
  3
PLOTSTYLNAMDICT
350
163
  3
PSVPSCALE
350
169
  3
PUCSBASE
350
16D
  3
PUCSORGBACK
350
173
  3
PUCSORGBOTTOM
350
16F
  3
PUCSORGFRONT
350
172
  3
PUCSORGLEFT
350
170
  3
PUCSORGRIGHT
350
171
  3
PUCSORGTOP
350
16E
  3
PUCSORTHOREF
350
16B
  3
PUCSORTHOVIEW
350
16C
  3
STYLESHEET
350
160
  3
TSTACKALIGN
350
15D
  3
TSTACKSIZE
350
15E
  3
UCSBASE
350
176
  3
UCSORGBACK
350
17C
  3
UCSORGBOTTOM
350
178
  3
UCSORGFRONT
350
17B
  3
UCSORGLEFT
350
179
  3
UCSORGRIGHT
350
17A
  3
UCSORGTOP
350
177
  3
UCSORTHOREF
350
174
  3
UCSORTHOVIEW
350
175
  3
VERSIONGUID
350
168
  0
DICTIONARY
  5
94
102
{ACAD_REACTORS
330
7
102
}
330
7
100
AcDbDictionary
  3
DIMASSOC
350
96
  3
HIDETEXT
350
95
  0
DICTIONARY
  5
12
102
{ACAD_REACTORS
330
11
102
}
330
11
100
AcDbDictionary
280
     1
  0
DICTIONARY
  5
13
102
{ACAD_REACTORS
330
11
102
}
330
11
100
AcDbDictionary
  0
XRECORD
  5
17E
102
{ACAD_REACTORS
330
17D
102
}
330
17D
100
AcDbXrecord
340
2
  0
XRECORD
  5
180
102
{ACAD_REACTORS
330
17F
102
}
330
17F
100
AcDbXrecord
340
C
  0
MLINESTYLE
  5
28
102
{ACAD_REACTORS
330
25
102
}
330
25
100
AcDbMlineStyle
  2
STANDARD
 70
     0
  3

 62
   256
 51
90.0
 52
90.0
 71
     2
 49
0.5
 62
   256
  6
BYLAYER
 49
-0.5
 62
   256
  6
BYLAYER
  0
ACDBPLACEHOLDER
  5
5
102
{ACAD_REACTORS
330
6
102
}
330
6
100
AcDbPlaceHolder
280
     0
  0
XRECORD
  5
166
102
{ACAD_REACTORS
330
15C
102
}
330
15C
100
AcDbXrecord
 90
        0
  0
XRECORD
  5
16A
102
{ACAD_REACTORS
330
15C
102
}
330
15C
100
AcDbXrecord
1000
DSTYLE
1002
{
1070
    79
 70
     2
1070
   179
 70
     2
1002
}
  0
XRECORD
  5
167
102
{ACAD_REACTORS
330
15C
102
}
330
15C
100
AcDbXrecord
  1
{19C29E87-2D4A-44F5-9CA9-8E2C957C07B1}
  0
XRECORD
  5
15F
102
{ACAD_REACTORS
330
15C
102
}
330
15C
100
AcDbXrecord
  1

  0
XRECORD
  5
165
102
{ACAD_REACTORS
330
15C
102
}
330
15C
100
AcDbXrecord
 90
        0
  0
XRECORD
  5
161
102
{ACAD_REACTORS
330
15C
102
}
330
15C
100
AcDbXrecord
340
B
  0
XRECORD
  5
164
102
{ACAD_REACTORS
330
15C
102
}
330
15C
100
AcDbXrecord
 90
     2589
  0
XRECORD
  5
162
102
{ACAD_REACTORS
330
15C
102
}
330
15C
100
AcDbXrecord
340
26
  0
XRECORD
  5
163
102
{ACAD_REACTORS
330
15C
102
}
330
15C
100
AcDbXrecord
340
6
  0
XRECORD
  5
169
102
{ACAD_REACTORS
330
15C
102
}
330
15C
100
AcDbXrecord
 40
0.0
  0
XRECORD
  5
16D
102
{ACAD_REACTORS
330
15C
102
}
330
15C
100
AcDbXrecord
340
0
  0
XRECORD
  5
173
102
{ACAD_REACTORS
330
15C
102
}
330
15C
100
AcDbXrecord
 10
0.0
 20
0.0
 30
0.0
  0
XRECORD
  5
16F
102
{ACAD_REACTORS
330
15C
102
}
330
15C
100
AcDbXrecord
 10
0.0
 20
0.0
 30
0.0
  0
XRECORD
  5
172
102
{ACAD_REACTORS
330
15C
102
}
330
15C
100
AcDbXrecord
 10
0.0
 20
0.0
 30
0.0
  0
XRECORD
  5
170
102
{ACAD_REACTORS
330
15C
102
}
330
15C
100
AcDbXrecord
 10
0.0
 20
0.0
 30
0.0
  0
XRECORD
  5
171
102
{ACAD_REACTORS
330
15C
102
}
330
15C
100
AcDbXrecord
 10
0.0
 20
0.0
 30
0.0
  0
XRECORD
  5
16E
102
{ACAD_REACTORS
330
15C
102
}
330
15C
100
AcDbXrecord
 10
0.0
 20
0.0
 30
0.0
  0
XRECORD
  5
16B
102
{ACAD_REACTORS
330
15C
102
}
330
15C
100
AcDbXrecord
340
0
  0
XRECORD
  5
16C
102
{ACAD_REACTORS
330
15C
102
}
330
15C
100
AcDbXrecord
 70
     0
  0
XRECORD
  5
160
102
{ACAD_REACTORS
330
15C
102
}
330
15C
100
AcDbXrecord
  1
monochrome.ctb
  0
XRECORD
  5
15D
102
{ACAD_REACTORS
330
15C
102
}
330
15C
100
AcDbXrecord
 90
        1
  0
XRECORD
  5
15E
102
{ACAD_REACTORS
330
15C
102
}
330
15C
100
AcDbXrecord
 90
       70
  0
XRECORD
  5
176
102
{ACAD_REACTORS
330
15C
102
}
330
15C
100
AcDbXrecord
340
0
  0
XRECORD
  5
17C
102
{ACAD_REACTORS
330
15C
102
}
330
15C
100
AcDbXrecord
 10
0.0
 20
0.0
 30
0.0
  0
XRECORD
  5
178
102
{ACAD_REACTORS
330
15C
102
}
330
15C
100
AcDbXrecord
 10
0.0
 20
0.0
 30
0.0
  0
XRECORD
  5
17B
102
{ACAD_REACTORS
330
15C
102
}
330
15C
100
AcDbXrecord
 10
0.0
 20
0.0
 30
0.0
  0
XRECORD
  5
179
102
{ACAD_REACTORS
330
15C
102
}
330
15C
100
AcDbXrecord
 10
0.0
 20
0.0
 30
0.0
  0
XRECORD
  5
17A
102
{ACAD_REACTORS
330
15C
102
}
330
15C
100
AcDbXrecord
 10
0.0
 20
0.0
 30
0.0
  0
XRECORD
  5
177
102
{ACAD_REACTORS
330
15C
102
}
330
15C
100
AcDbXrecord
 10
0.0
 20
0.0
 30
0.0
  0
XRECORD
  5
174
102
{ACAD_REACTORS
330
15C
102
}
330
15C
100
AcDbXrecord
340
0
  0
XRECORD
  5
175
102
{ACAD_REACTORS
330
15C
102
}
330
15C
100
AcDbXrecord
 70
     0
  0
XRECORD
  5
168
102
{ACAD_REACTORS
330
15C
102
}
330
15C
100
AcDbXrecord
  1
{B113717C-BBDA-4A45-95E9-2915CA88F076}
  0
DICTIONARYVAR
  5
96
102
{ACAD_REACTORS
330
94
102
}
330
94
100
DictionaryVariables
280
     0
  1
1
  0
DICTIONARYVAR
  5
95
102
{ACAD_REACTORS
330
94
102
}
330
94
100
DictionaryVariables
280
     0
  1
1
  0
ENDSEC
  0
EOF
