  0
SECTION
  2
HEADER
  9
$ACADVER
  1
AC1014
  9
$ACADMAINTVER
 70
     9
  9
$DWGCODEPAGE
  3
ANSI_932
  9
$INSBASE
 10
0.0
 20
0.0
 30
0.0
  9
$EXTMIN
 10
8.499796696145494
 20
4.53740087959909
 30
-0.0000000349181948
  9
$EXTMAX
 10
54.5321652411717
 20
25.26547549787119
 30
0.0000000814935746
  9
$LIMMIN
 10
0.0
 20
0.0
  9
$LIMMAX
 10
420.0
 20
297.0
  9
$ORTHOMODE
 70
     1
  9
$REGENMODE
 70
     1
  9
$FILLMODE
 70
     1
  9
$QTEXTMODE
 70
     0
  9
$MIRRTEXT
 70
     0
  9
$DRAGMODE
 70
     2
  9
$LTSCALE
 40
2.0
  9
$OSMODE
 70
   191
  9
$ATTMODE
 70
     1
  9
$TEXTSIZE
 40
2.5
  9
$TRACEWID
 40
1.0
  9
$TEXTSTYLE
  7
STANDARD
  9
$CLAYER
  8
OBJECT
  9
$CELTYPE
  6
BYLAYER
  9
$CECOLOR
 62
   256
  9
$CELTSCALE
 40
1.0
  9
$DELOBJ
 70
     1
  9
$DISPSILH
 70
     0
  9
$DIMSCALE
 40
0.4600000000000001
  9
$DIMASZ
 40
2.5
  9
$DIMEXO
 40
0.625
  9
$DIMDLI
 40
1.0
  9
$DIMRND
 40
0.0
  9
$DIMDLE
 40
0.0
  9
$DIMEXE
 40
0.625
  9
$DIMTP
 40
0.0
  9
$DIMTM
 40
0.0
  9
$DIMTXT
 40
2.5
  9
$DIMCEN
 40
0.0
  9
$DIMTSZ
 40
0.0
  9
$DIMTOL
 70
     0
  9
$DIMLIM
 70
     0
  9
$DIMTIH
 70
     0
  9
$DIMTOH
 70
     0
  9
$DIMSE1
 70
     0
  9
$DIMSE2
 70
     0
  9
$DIMTAD
 70
     1
  9
$DIMZIN
 70
     8
  9
$DIMBLK
  1

  9
$DIMASO
 70
     1
  9
$DIMSHO
 70
     1
  9
$DIMPOST
  1

  9
$DIMAPOST
  1

  9
$DIMALT
 70
     0
  9
$DIMALTD
 70
     4
  9
$DIMALTF
 40
0.0394
  9
$DIMLFAC
 40
1.0
  9
$DIMTOFL
 70
     1
  9
$DIMTVP
 40
0.0
  9
$DIMTIX
 70
     0
  9
$DIMSOXD
 70
     0
  9
$DIMSAH
 70
     0
  9
$DIMBLK1
  1

  9
$DIMBLK2
  1

  9
$DIMSTYLE
  2
STANDARD
  9
$DIMCLRD
 70
     3
  9
$DIMCLRE
 70
     3
  9
$DIMCLRT
 70
     3
  9
$DIMTFAC
 40
1.0
  9
$DIMGAP
 40
0.625
  9
$DIMJUST
 70
     0
  9
$DIMSD1
 70
     0
  9
$DIMSD2
 70
     0
  9
$DIMTOLJ
 70
     1
  9
$DIMTZIN
 70
     8
  9
$DIMALTZ
 70
     0
  9
$DIMALTTZ
 70
     0
  9
$DIMFIT
 70
     3
  9
$DIMUPT
 70
     0
  9
$DIMUNIT
 70
     2
  9
$DIMDEC
 70
     2
  9
$DIMTDEC
 70
     2
  9
$DIMALTU
 70
     8
  9
$DIMALTTD
 70
     4
  9
$DIMTXSTY
  7
STANDARD
  9
$DIMAUNIT
 70
     0
  9
$LUNITS
 70
     2
  9
$LUPREC
 70
     4
  9
$SKETCHINC
 40
1.0
  9
$FILLETRAD
 40
0.5
  9
$AUNITS
 70
     0
  9
$AUPREC
 70
     0
  9
$MENU
  1
.
  9
$ELEVATION
 40
0.0
  9
$PELEVATION
 40
0.0
  9
$THICKNESS
 40
0.0
  9
$LIMCHECK
 70
     0
  9
$BLIPMODE
 70
     0
  9
$CHAMFERA
 40
0.0
  9
$CHAMFERB
 40
0.0
  9
$CHAMFERC
 40
20.0
  9
$CHAMFERD
 40
0.0
  9
$SKPOLY
 70
     0
  9
$TDCREATE
 40
2452136.870343981
  9
$TDUPDATE
 40
2454518.427781574
  9
$TDINDWG
 40
10.8285484838
  9
$TDUSRTIMER
 40
10.8285482986
  9
$USRTIMER
 70
     1
  9
$ANGBASE
 50
0.0
  9
$ANGDIR
 70
     0
  9
$PDMODE
 70
     0
  9
$PDSIZE
 40
0.0
  9
$PLINEWID
 40
0.3
  9
$COORDS
 70
     0
  9
$SPLFRAME
 70
     0
  9
$SPLINETYPE
 70
     6
  9
$SPLINESEGS
 70
     8
  9
$ATTDIA
 70
     0
  9
$ATTREQ
 70
     1
  9
$HANDLING
 70
 22529
  9
$HANDSEED
  5
1DF
  9
$SURFTAB1
 70
     6
  9
$SURFTAB2
 70
     6
  9
$SURFTYPE
 70
     6
  9
$SURFU
 70
     6
  9
$SURFV
 70
     6
  9
$UCSNAME
  2

  9
$UCSORG
 10
0.0
 20
0.0
 30
0.0
  9
$UCSXDIR
 10
1.0
 20
0.0
 30
0.0
  9
$UCSYDIR
 10
0.0
 20
1.0
 30
0.0
  9
$PUCSNAME
  2

  9
$PUCSORG
 10
0.0
 20
0.0
 30
0.0
  9
$PUCSXDIR
 10
1.0
 20
0.0
 30
0.0
  9
$PUCSYDIR
 10
0.0
 20
1.0
 30
0.0
  9
$USERI1
 70
     0
  9
$USERI2
 70
     0
  9
$USERI3
 70
     0
  9
$USERI4
 70
     0
  9
$USERI5
 70
     0
  9
$USERR1
 40
0.0
  9
$USERR2
 40
0.0
  9
$USERR3
 40
0.0
  9
$USERR4
 40
0.0
  9
$USERR5
 40
0.0
  9
$WORLDVIEW
 70
     1
  9
$SHADEDGE
 70
     3
  9
$SHADEDIF
 70
    70
  9
$TILEMODE
 70
     1
  9
$MAXACTVP
 70
    48
  9
$PINSBASE
 10
0.0
 20
0.0
 30
0.0
  9
$PLIMCHECK
 70
     0
  9
$PEXTMIN
 10
0.9598916571909988
 20
0.8043799099959727
 30
0.0
  9
$PEXTMAX
 10
8.639024914718985
 20
7.239419189963752
 30
0.0
  9
$PLIMMIN
 10
-0.7005418191744587
 20
-0.2281003861915408
  9
$PLIMMAX
 10
10.29945794052965
 20
8.271899373512567
  9
$UNITMODE
 70
     0
  9
$VISRETAIN
 70
     1
  9
$PLINEGEN
 70
     0
  9
$PSLTSCALE
 70
     1
  9
$TREEDEPTH
 70
  3020
  9
$PICKSTYLE
 70
     1
  9
$CMLSTYLE
  2
STANDARD
  9
$CMLJUST
 70
     0
  9
$CMLSCALE
 40
20.0
  9
$PROXYGRAPHICS
 70
     1
  9
$MEASUREMENT
 70
     0
  0
ENDSEC
  0
SECTION
  2
CLASSES
  0
CLASS
  1
DICTIONARYVAR
  2
AcDbDictionaryVar
  3
AutoCAD 2000
 90
        0
280
     0
281
     0
  0
CLASS
  1
HATCH
  2
AcDbHatch
  3
AutoCAD 2000
 90
        0
280
     0
281
     1
  0
CLASS
  1
XRECORD
  2
AcDbXrecord
  3
AutoCAD 2000
 90
        0
280
     0
281
     0
  0
CLASS
  1
LWPOLYLINE
  2
AcDbPolyline
  3
AutoCAD 2000
 90
        0
280
     0
281
     1
  0
CLASS
  1
ACDBDICTIONARYWDFLT
  2
AcDbDictionaryWithDefault
  3
AutoCAD 2000
 90
        0
280
     0
281
     0
  0
CLASS
  1
ACDBPLACEHOLDER
  2
AcDbPlaceHolder
  3
AutoCAD 2000
 90
        0
280
     0
281
     0
  0
CLASS
  1
LAYOUT
  2
AcDbLayout
  3
AutoCAD 2000
 90
        0
280
     0
281
     0
  0
CLASS
  1
DIMASSOC
  2
AcDbDimAssoc
  3
"AcDbDimAssoc|Product Desc:     AcDim ARX App For Dimension|Company:          Autodesk, Inc.|WEB Address:      www.autodesk.com"
 90
        0
280
     0
281
     0
  0
CLASS
  1
PLOTSETTINGS
  2
AcDbPlotSettings
  3
AutoCAD 2000
 90
        0
280
     0
281
     0
  0
CLASS
  1
LONG_TRANSACTION
  2
AcDbLongTransaction
  3
AutoCAD 2000
 90
        0
280
     0
281
     0
  0
CLASS
  1
LWPOLYLINE
  2
AcDbPolyline
  3
AutoCAD 2000
 90
        0
280
     0
281
     1
  0
CLASS
  1
HATCH
  2
AcDbHatch
  3
AutoCAD 2000
 90
        0
280
     0
281
     1
  0
CLASS
  1
XRECORD
  2
AcDbXrecord
  3
AutoCAD 2000
 90
        0
280
     0
281
     0
  0
CLASS
  1
LONG_TRANSACTION
  2
AcDbLongTransaction
  3
AutoCAD 2000
 90
        0
280
     0
281
     0
  0
CLASS
  1
LWPOLYLINE
  2
AcDbPolyline
  3
AutoCAD 2000
 90
        0
280
     0
281
     1
  0
CLASS
  1
HATCH
  2
AcDbHatch
  3
AutoCAD 2000
 90
        0
280
     0
281
     1
  0
CLASS
  1
XRECORD
  2
AcDbXrecord
  3
AutoCAD 2000
 90
        0
280
     0
281
     0
  0
ENDSEC
  0
SECTION
  2
TABLES
  0
TABLE
  2
VPORT
  5
1C
330
0
100
AcDbSymbolTable
 70
     4
  0
VPORT
  5
1BB
330
1C
100
AcDbSymbolTableRecord
100
AcDbViewportTableRecord
  2
*ACTIVE
 70
     0
 10
0.0
 20
0.0
 11
1.0
 21
1.0
 12
31.66161481456993
 22
15.14279242701627
 13
0.0
 23
0.0
 14
10.0
 24
10.0
 15
10.0
 25
10.0
 16
0.0
 26
0.0
 36
1.0
 17
0.0
 27
0.0
 37
0.0
 40
58.73184472697387
 41
1.493654822335025
 42
50.0
 43
0.0
 44
0.0
 50
0.0
 51
0.0
 71
     0
 72
 20000
 73
     1
 74
     1
 75
     0
 76
     0
 77
     0
 78
     0
  0
ENDTAB
  0
TABLE
  2
LTYPE
  5
17
330
0
100
AcDbSymbolTable
 70
     1
  0
LTYPE
  5
18
330
17
100
AcDbSymbolTableRecord
100
AcDbLinetypeTableRecord
  2
BYBLOCK
 70
     0
  3

 72
    65
 73
     0
 40
0.0
  0
LTYPE
  5
19
330
17
100
AcDbSymbolTableRecord
100
AcDbLinetypeTableRecord
  2
BYLAYER
 70
     0
  3

 72
    65
 73
     0
 40
0.0
  0
LTYPE
  5
8
330
17
100
AcDbSymbolTableRecord
100
AcDbLinetypeTableRecord
  2
CONTINUOUS
 70
     0
  3
Solid line
 72
    65
 73
     0
 40
0.0
  0
ENDTAB
  0
TABLE
  2
LAYER
  5
10
102
{ACAD_XDICTIONARY
360
11
102
}
330
0
100
AcDbSymbolTable
 70
     4
  0
LAYER
  5
4
330
10
100
AcDbSymbolTableRecord
100
AcDbLayerTableRecord
  2
0
 70
     0
 62
     7
  6
CONTINUOUS
  0
LAYER
  5
2A
330
10
100
AcDbSymbolTableRecord
100
AcDbLayerTableRecord
  2
TEXT
 70
     0
 62
     3
  6
CONTINUOUS
  0
LAYER
  5
27
330
10
100
AcDbSymbolTableRecord
100
AcDbLayerTableRecord
  2
OBJECT
 70
     0
 62
     7
  6
CONTINUOUS
  0
LAYER
  5
57
330
10
100
AcDbSymbolTableRecord
100
AcDbLayerTableRecord
  2
DEFPOINTS
 70
     0
 62
     2
  6
CONTINUOUS
  0
ENDTAB
  0
TABLE
  2
STYLE
  5
14
330
0
100
AcDbSymbolTable
 70
     2
  0
STYLE
  5
15
330
14
100
AcDbSymbolTableRecord
100
AcDbTextStyleTableRecord
  2
STANDARD
 70
     0
 40
0.0
 41
1.0
 50
0.0
 71
     0
 42
2.5
  3
simplex.shx
  4
bigfont.shx
  0
ENDTAB
  0
TABLE
  2
VIEW
  5
1A
330
0
100
AcDbSymbolTable
 70
     0
  0
ENDTAB
  0
TABLE
  2
UCS
  5
1B
330
0
100
AcDbSymbolTable
 70
     0
  0
ENDTAB
  0
TABLE
  2
APPID
  5
1E
330
0
100
AcDbSymbolTable
 70
     1
  0
APPID
  5
1F
330
1E
100
AcDbSymbolTableRecord
100
AcDbRegAppTableRecord
  2
ACAD
 70
     0
  0
ENDTAB
  0
TABLE
  2
DIMSTYLE
  5
20
330
0
100
AcDbSymbolTable
 70
     1
  0
DIMSTYLE
105
21
330
20
100
AcDbSymbolTableRecord
100
AcDbDimStyleTableRecord
  2
STANDARD
 70
     0
  3

  4

  5

  6

  7

 40
0.4600000000000001
 41
2.5
 42
0.625
 43
1.0
 44
0.625
 45
0.0
 46
0.0
 47
0.0
 48
0.0
140
2.5
141
0.0
142
0.0
143
0.0394
144
1.0
145
0.0
146
1.0
147
0.625
 71
     0
 72
     0
 73
     0
 74
     0
 75
     0
 76
     0
 77
     1
 78
     8
170
     0
171
     4
172
     1
173
     0
174
     0
175
     0
176
     3
177
     3
178
     3
270
     2
271
     2
272
     2
273
     8
274
     4
340
15
275
     0
280
     0
281
     0
282
     0
283
     1
284
     8
285
     0
286
     0
287
     3
288
     0
  0
ENDTAB
  0
TABLE
  2
BLOCK_RECORD
  5
1
330
0
100
AcDbSymbolTable
 70
     0
  0
BLOCK_RECORD
  5
2
102
{ACAD_XDICTIONARY
360
167
102
}
330
1
100
AcDbSymbolTableRecord
100
AcDbBlockTableRecord
  2
*MODEL_SPACE
  0
BLOCK_RECORD
  5
C
102
{ACAD_XDICTIONARY
360
169
102
}
330
1
100
AcDbSymbolTableRecord
100
AcDbBlockTableRecord
  2
*PAPER_SPACE
  0
ENDTAB
  0
ENDSEC
  0
SECTION
  2
BLOCKS
  0
BLOCK
  5
3
330
2
100
AcDbEntity
  8
0
100
AcDbBlockBegin
  2
*MODEL_SPACE
 70
     2
 10
0.0
 20
0.0
 30
0.0
  3
*MODEL_SPACE
  1

  0
ENDBLK
  5
9
330
2
100
AcDbEntity
  8
0
100
AcDbBlockEnd
  0
BLOCK
  5
D
330
C
100
AcDbEntity
 67
     1
  8
0
100
AcDbBlockBegin
  2
*PAPER_SPACE
 70
     0
 10
0.0
 20
0.0
 30
0.0
  3
*PAPER_SPACE
  1

  0
ENDBLK
  5
E
330
C
100
AcDbEntity
 67
     1
  8
0
100
AcDbBlockEnd
  0
ENDSEC
  0
SECTION
  2
ENTITIES
  0
LINE
  5
5C
330
2
100
AcDbEntity
  8
OBJECT
 48
10.0
100
AcDbLine
 10
44.56329134780594
 20
12.04653961008889
 30
0.0
 11
44.56329134780594
 21
7.046539610088984
 31
0.0
  0
LINE
  5
5D
330
2
100
AcDbEntity
  8
OBJECT
 48
10.0
100
AcDbLine
 10
50.16329134780585
 20
14.54653961008898
 30
0.0
 11
50.16329134780585
 21
4.546539610088899
 31
0.0
  0
LINE
  5
5E
330
2
100
AcDbEntity
  8
OBJECT
 48
10.0
100
AcDbLine
 10
49.36329134780589
 20
13.74653961008908
 30
0.0
 11
49.36329134780589
 21
5.34653961008891
 31
0.0
  0
LINE
  5
5F
330
2
100
AcDbEntity
  8
OBJECT
 48
10.0
100
AcDbLine
 10
45.36329134780589
 20
12.84653961008891
 30
0.0
 11
45.36329134780589
 21
6.246539610088802
 31
0.0
  0
TEXT
  5
7D
330
2
100
AcDbEntity
  8
TEXT
100
AcDbText
 10
53.83624486066697
 20
5.746539610088888
 30
0.0
 40
1.5
  1
1
100
AcDbText
  0
LINE
  5
7E
330
2
100
AcDbEntity
  8
OBJECT
 48
10.0
100
AcDbLine
 10
43.56329134780594
 20
4.546539610088899
 30
0.0
 11
50.16329134780585
 21
4.546539610088899
 31
0.0
  0
LINE
  5
7F
330
2
100
AcDbEntity
  8
OBJECT
 48
10.0
100
AcDbLine
 10
43.56329134780594
 20
5.34653961008891
 30
0.0
 11
49.36329134780589
 21
5.34653961008891
 31
0.0
  0
LINE
  5
80
330
2
100
AcDbEntity
  8
OBJECT
 48
10.0
100
AcDbLine
 10
47.36329134780589
 20
6.646539610089092
 30
0.0
 11
47.96329134780603
 21
6.646539610088893
 31
0.0
  0
LINE
  5
81
330
2
100
AcDbEntity
  8
OBJECT
 48
10.0
100
AcDbLine
 10
47.36329134780589
 20
7.446539610088905
 30
0.0
 11
47.96329134780603
 21
7.446539610088905
 31
0.0
  0
LINE
  5
82
330
2
100
AcDbEntity
  8
OBJECT
 48
10.0
100
AcDbLine
 10
43.56329134780594
 20
7.046539610088899
 30
0.0
 11
44.56329134780594
 21
7.046539610088984
 31
0.0
  0
LINE
  5
83
330
2
100
AcDbEntity
  8
OBJECT
 48
10.0
100
AcDbLine
 10
44.36329134780589
 20
5.34653961008891
 30
0.0
 11
44.36329134780589
 21
6.246539610088888
 31
0.0
  0
LINE
  5
84
330
2
100
AcDbEntity
  8
OBJECT
 48
10.0
100
AcDbLine
 10
44.36329134780589
 20
6.246539610088888
 30
0.0
 11
45.36329134780589
 21
6.246539610088888
 31
0.0
  0
LINE
  5
85
330
2
100
AcDbEntity
  8
OBJECT
 48
10.0
100
AcDbLine
 10
43.56329134780594
 20
7.046539610088899
 30
0.0
 11
43.56329134780594
 21
4.546539610088899
 31
0.0
  0
LINE
  5
86
330
2
100
AcDbEntity
  8
OBJECT
 48
10.0
100
AcDbLine
 10
46.3632913478059
 20
6.246539610088802
 30
0.0
 11
46.3632913478059
 21
7.84653961008891
 31
0.0
  0
LINE
  5
87
330
2
100
AcDbEntity
  8
OBJECT
 48
10.0
100
AcDbLine
 10
46.3632913478059
 20
6.246539610088802
 30
0.0
 11
47.36329134780589
 21
6.246539610088888
 31
0.0
  0
LINE
  5
88
330
2
100
AcDbEntity
  8
OBJECT
 48
10.0
100
AcDbLine
 10
46.3632913478059
 20
7.84653961008891
 30
0.0
 11
47.36329134780589
 21
7.84653961008891
 31
0.0
  0
LINE
  5
89
330
2
100
AcDbEntity
  8
OBJECT
 48
10.0
100
AcDbLine
 10
47.36329134780589
 20
6.246539610088802
 30
0.0
 11
47.36329134780589
 21
7.046539610088814
 31
0.0
  0
LINE
  5
8A
330
2
100
AcDbEntity
  8
OBJECT
 48
10.0
100
AcDbLine
 10
47.36329134780703
 20
7.046539610088899
 30
0.0
 11
47.36329134780589
 21
7.84653961008891
 31
0.0
  0
LINE
  5
8B
330
2
100
AcDbEntity
  8
OBJECT
 48
10.0
100
AcDbLine
 10
49.36329134780589
 20
7.046539610088814
 30
0.0
 11
50.16329134780585
 21
7.046539610088814
 31
0.0
  0
LINE
  5
8C
330
2
100
AcDbEntity
  8
OBJECT
 48
10.0
100
AcDbLine
 10
47.96329134780603
 20
6.646539610088893
 30
0.0
 11
47.96329134780603
 21
7.446539610088819
 31
0.0
  0
LINE
  5
8D
330
2
100
AcDbEntity
  8
OBJECT
 48
10.0
100
AcDbLine
 10
43.56329134780594
 20
14.54653961008889
 30
0.0
 11
50.16329134780585
 21
14.54653961008889
 31
0.0
  0
LINE
  5
8E
330
2
100
AcDbEntity
  8
OBJECT
 48
10.0
100
AcDbLine
 10
43.56329134780594
 20
13.746539610089
 30
0.0
 11
49.36329134780589
 21
13.746539610089
 31
0.0
  0
LINE
  5
8F
330
2
100
AcDbEntity
  8
OBJECT
 48
10.0
100
AcDbLine
 10
44.36329134780589
 20
12.84653961008891
 30
0.0
 11
45.36329134780589
 21
12.84653961008891
 31
0.0
  0
LINE
  5
90
330
2
100
AcDbEntity
  8
OBJECT
 48
10.0
100
AcDbLine
 10
44.36329134780589
 20
13.746539610089
 30
0.0
 11
44.36329134780589
 21
12.84653961008891
 31
0.0
  0
LINE
  5
91
330
2
100
AcDbEntity
  8
OBJECT
 48
10.0
100
AcDbLine
 10
46.3632913478059
 20
12.84653961008899
 30
0.0
 11
47.36329134780589
 21
12.84653961008891
 31
0.0
  0
LINE
  5
92
330
2
100
AcDbEntity
  8
OBJECT
 48
10.0
100
AcDbLine
 10
47.36329134780589
 20
9.146539610088893
 30
0.0
 11
47.96329134780603
 21
9.146539610088893
 31
0.0
  0
LINE
  5
93
330
2
100
AcDbEntity
  8
OBJECT
 48
10.0
100
AcDbLine
 10
47.36329134780589
 20
9.946539610088819
 30
0.0
 11
47.96329134780603
 21
9.946539610088905
 31
0.0
  0
LINE
  5
94
330
2
100
AcDbEntity
  8
OBJECT
 48
10.0
100
AcDbLine
 10
47.36329134780589
 20
11.64653961008889
 30
0.0
 11
47.96329134780603
 21
11.64653961008889
 31
0.0
  0
LINE
  5
95
330
2
100
AcDbEntity
  8
OBJECT
 48
10.0
100
AcDbLine
 10
47.36329134780589
 20
12.44653961008882
 30
0.0
 11
47.96329134780603
 21
12.4465396100889
 31
0.0
  0
LINE
  5
96
330
2
100
AcDbEntity
  8
OBJECT
 48
10.0
100
AcDbLine
 10
46.3632913478059
 20
10.34653961008899
 30
0.0
 11
46.3632913478059
 21
8.746539610089001
 31
0.0
  0
LINE
  5
97
330
2
100
AcDbEntity
  8
OBJECT
 48
10.0
100
AcDbLine
 10
47.36329134780703
 20
9.546539610088899
 30
0.0
 11
47.36329134780589
 21
8.746539610089001
 31
0.0
  0
LINE
  5
98
330
2
100
AcDbEntity
  8
OBJECT
 48
10.0
100
AcDbLine
 10
43.56329134780594
 20
10.0465396100889
 30
0.0
 11
43.56329134780594
 21
9.046539610088899
 31
0.0
  0
LINE
  5
99
330
2
100
AcDbEntity
  8
OBJECT
 48
10.0
100
AcDbLine
 10
43.56329134780594
 20
9.046539610088899
 30
0.0
 11
44.56329134780594
 21
9.046539610088984
 31
0.0
  0
LINE
  5
9A
330
2
100
AcDbEntity
  8
OBJECT
 48
10.0
100
AcDbLine
 10
46.3632913478059
 20
8.746539610089001
 30
0.0
 11
47.36329134780589
 21
8.746539610089001
 31
0.0
  0
LINE
  5
9B
330
2
100
AcDbEntity
  8
OBJECT
 48
10.0
100
AcDbLine
 10
43.56329134780594
 20
12.04653961008889
 30
0.0
 11
44.56329134780594
 21
12.04653961008881
 31
0.0
  0
LINE
  5
9C
330
2
100
AcDbEntity
  8
OBJECT
 48
10.0
100
AcDbLine
 10
43.56329134780594
 20
10.0465396100889
 30
0.0
 11
44.56329134780594
 21
10.04653961008881
 31
0.0
  0
LINE
  5
9D
330
2
100
AcDbEntity
  8
OBJECT
 48
10.0
100
AcDbLine
 10
46.3632913478059
 20
10.34653961008899
 30
0.0
 11
47.36329134780589
 21
10.34653961008891
 31
0.0
  0
LINE
  5
9E
330
2
100
AcDbEntity
  8
OBJECT
 48
10.0
100
AcDbLine
 10
47.36329134780589
 20
10.34653961008899
 30
0.0
 11
47.36329134780589
 21
9.546539610088984
 31
0.0
  0
LINE
  5
9F
330
2
100
AcDbEntity
  8
OBJECT
 48
10.0
100
AcDbLine
 10
47.36329134780703
 20
12.04653961008889
 30
0.0
 11
47.36329134780589
 21
11.246539610089
 31
0.0
  0
LINE
  5
A0
330
2
100
AcDbEntity
  8
OBJECT
 48
10.0
100
AcDbLine
 10
46.3632913478059
 20
11.246539610089
 30
0.0
 11
47.36329134780589
 21
11.246539610089
 31
0.0
  0
LINE
  5
A1
330
2
100
AcDbEntity
  8
OBJECT
 48
10.0
100
AcDbLine
 10
47.96329134780603
 20
9.946539610088905
 30
0.0
 11
47.96329134780603
 21
9.146539610089092
 31
0.0
  0
LINE
  5
A2
330
2
100
AcDbEntity
  8
OBJECT
 48
10.0
100
AcDbLine
 10
49.36329134780589
 20
12.04653961008889
 30
0.0
 11
50.16329134780585
 21
12.04653961008889
 31
0.0
  0
LINE
  5
A3
330
2
100
AcDbEntity
  8
OBJECT
 48
10.0
100
AcDbLine
 10
47.96329134780603
 20
12.4465396100889
 30
0.0
 11
47.96329134780603
 21
11.646539610089
 31
0.0
  0
LINE
  5
A4
330
2
100
AcDbEntity
  8
OBJECT
 48
10.0
100
AcDbLine
 10
43.56329134780594
 20
14.54653961008889
 30
0.0
 11
43.56329134780594
 21
12.04653961008889
 31
0.0
  0
LINE
  5
A5
330
2
100
AcDbEntity
  8
OBJECT
 48
10.0
100
AcDbLine
 10
47.36329134780589
 20
12.84653961008899
 30
0.0
 11
47.36329134780589
 21
12.04653961008898
 31
0.0
  0
LINE
  5
A6
330
2
100
AcDbEntity
  8
OBJECT
 48
10.0
100
AcDbLine
 10
46.3632913478059
 20
12.84653961008899
 30
0.0
 11
46.3632913478059
 21
11.246539610089
 31
0.0
  0
TEXT
  5
A7
330
2
100
AcDbEntity
  8
OBJECT
100
AcDbText
 10
9.583095049435542
 20
22.73855930378931
 30
0.0
 40
2.5
  1
XARR-03VF　（JST）　
100
AcDbText
  0
LINE
  5
B2
330
2
100
AcDbEntity
  8
OBJECT
100
AcDbLine
 10
8.744478791134952
 20
13.5465396100889
 30
0.0
 11
22.14447879113504
 21
13.54653961008898
 31
0.0
  0
LINE
  5
B3
330
2
100
AcDbEntity
  8
OBJECT
100
AcDbLine
 10
8.544478791134906
 20
6.34653961008891
 30
0.0
 11
22.14447879113504
 21
6.34653961008891
 31
0.0
  0
LINE
  5
B4
330
2
100
AcDbEntity
  8
OBJECT
100
AcDbLine
 10
8.744478791134952
 20
5.546539610088899
 30
0.0
 11
22.14447879113504
 21
5.546539610088814
 31
0.0
  0
LINE
  5
B5
330
2
100
AcDbEntity
  8
OBJECT
100
AcDbLine
 10
8.544478791134906
 20
13.34653961008891
 30
0.0
 11
8.744478791134952
 21
13.5465396100889
 31
0.0
  0
LINE
  5
B6
330
2
100
AcDbEntity
  8
OBJECT
100
AcDbLine
 10
8.544478791134906
 20
5.746539610088888
 30
0.0
 11
8.744478791134952
 21
5.546539610088899
 31
0.0
  0
LINE
  5
B7
330
2
100
AcDbEntity
  8
OBJECT
100
AcDbLine
 10
8.544478791134906
 20
13.34653961008839
 30
0.0
 11
8.544478791134906
 21
5.746539610088888
 31
0.0
  0
LINE
  5
B8
330
2
100
AcDbEntity
  8
OBJECT
100
AcDbLine
 10
22.14447879113504
 20
13.5465396100889
 30
0.0
 11
24.14447879113504
 21
14.54653961008918
 31
0.0
  0
LINE
  5
B9
330
2
100
AcDbEntity
  8
OBJECT
100
AcDbLine
 10
22.14447879113504
 20
5.546539610088899
 30
0.0
 11
24.14447879113504
 21
4.546539610088586
 31
0.0
  0
TEXT
  5
BA
330
2
100
AcDbEntity
  8
TEXT
100
AcDbText
 10
20.0364801010171
 20
6.232912013914898
 30
0.0
 40
1.5
  1
1
 50
270.0
100
AcDbText
  0
ARC
  5
BB
330
2
100
AcDbEntity
  8
OBJECT
100
AcDbCircle
 10
22.14447879113504
 20
5.946539610088905
 30
0.0
 40
0.4
100
AcDbArc
 50
270.0
 51
90.0
  0
LINE
  5
BC
330
2
100
AcDbEntity
  8
OBJECT
100
AcDbLine
 10
22.14447879113413
 20
13.5465396100885
 30
0.0
 11
22.14447879113504
 21
6.34653961008891
 31
0.0
  0
LINE
  5
BD
330
2
100
AcDbEntity
  8
OBJECT
100
AcDbLine
 10
30.14447879113504
 20
12.24653961008888
 30
0.0
 11
30.14447879113504
 21
14.34653961008879
 31
0.0
  0
LINE
  5
BE
330
2
100
AcDbEntity
  8
OBJECT
100
AcDbLine
 10
24.14447879113504
 20
12.04653961008889
 30
0.0
 11
24.14447879113504
 21
14.54653961008918
 31
0.0
  0
LINE
  5
BF
330
2
100
AcDbEntity
  8
OBJECT
100
AcDbLine
 10
23.14447879113504
 20
12.04653961008889
 30
0.0
 11
29.94447879113499
 21
12.04653961008889
 31
0.0
  0
LINE
  5
C0
330
2
100
AcDbEntity
  8
OBJECT
100
AcDbLine
 10
23.14447879113504
 20
7.046539610088899
 30
0.0
 11
29.94447879113499
 21
7.046539610088899
 31
0.0
  0
LINE
  5
C1
330
2
100
AcDbEntity
  8
OBJECT
100
AcDbLine
 10
24.14447879113413
 20
4.546539610088899
 30
0.0
 11
29.94447879113499
 21
4.546539610088899
 31
0.0
  0
LINE
  5
C2
330
2
100
AcDbEntity
  8
OBJECT
100
AcDbLine
 10
25.14447879113504
 20
10.04653961008898
 30
0.0
 11
26.14447879113504
 21
10.04653961008898
 31
0.0
  0
LINE
  5
C3
330
2
100
AcDbEntity
  8
OBJECT
100
AcDbLine
 10
26.14447879113504
 20
10.04653961008898
 30
0.0
 11
26.14447879113504
 21
9.046539610088899
 31
0.0
  0
LINE
  5
C4
330
2
100
AcDbEntity
  8
OBJECT
100
AcDbLine
 10
25.64447879113504
 20
10.04653961008898
 30
0.0
 11
25.64447879113504
 21
9.046539610088814
 31
0.0
  0
LINE
  5
C5
330
2
100
AcDbEntity
  8
OBJECT
100
AcDbLine
 10
25.14447879113504
 20
9.046539610088814
 30
0.0
 11
26.14447879113504
 21
9.046539610088814
 31
0.0
  0
LINE
  5
C6
330
2
100
AcDbEntity
  8
OBJECT
100
AcDbLine
 10
23.14447879113504
 20
12.04653961008889
 30
0.0
 11
23.14447879113504
 21
7.046539610088899
 31
0.0
  0
LINE
  5
C7
330
2
100
AcDbEntity
  8
OBJECT
100
AcDbLine
 10
24.14447879113504
 20
7.046539610088899
 30
0.0
 11
24.14447879113504
 21
4.546539610088586
 31
0.0
  0
LINE
  5
C8
330
2
100
AcDbEntity
  8
OBJECT
100
AcDbLine
 10
25.14447879113504
 20
10.04653961008898
 30
0.0
 11
25.14447879113504
 21
9.046539610088899
 31
0.0
  0
LINE
  5
C9
330
2
100
AcDbEntity
  8
OBJECT
100
AcDbLine
 10
29.94447879113499
 20
12.04653961008889
 30
0.0
 11
30.14447879113504
 21
12.24653961008888
 31
0.0
  0
LINE
  5
CA
330
2
100
AcDbEntity
  8
OBJECT
100
AcDbLine
 10
30.14447879113504
 20
4.746539610088888
 30
0.0
 11
29.94447879113499
 21
4.546539610088899
 31
0.0
  0
LINE
  5
CB
330
2
100
AcDbEntity
  8
OBJECT
100
AcDbLine
 10
29.94447879113499
 20
7.046539610088899
 30
0.0
 11
30.14447879113504
 21
6.84653961008891
 31
0.0
  0
LINE
  5
CC
330
2
100
AcDbEntity
  8
OBJECT
100
AcDbLine
 10
27.64447879113504
 20
12.04653961008889
 30
0.0
 11
27.64447879113504
 21
7.046539610088899
 31
0.0
  0
LINE
  5
CD
330
2
100
AcDbEntity
  8
OBJECT
100
AcDbLine
 10
27.89447879113504
 20
12.04653961008889
 30
0.0
 11
27.89447879113504
 21
7.046539610088899
 31
0.0
  0
LINE
  5
CE
330
2
100
AcDbEntity
  8
OBJECT
100
AcDbLine
 10
30.14447879113504
 20
6.84653961008891
 30
0.0
 11
30.14447879113504
 21
4.746539610088888
 31
0.0
  0
LINE
  5
CF
330
2
100
AcDbEntity
  8
OBJECT
100
AcDbLine
 10
28.14447879113504
 20
12.04653961008889
 30
0.0
 11
28.14447879113504
 21
7.046539610088899
 31
0.0
  0
LINE
  5
D0
330
2
100
AcDbEntity
  8
OBJECT
100
AcDbLine
 10
24.14447879113413
 20
14.54653961008881
 30
0.0
 11
29.94447879113499
 21
14.54653961008881
 31
0.0
  0
LINE
  5
D1
330
2
100
AcDbEntity
  8
OBJECT
100
AcDbLine
 10
30.14447879113504
 20
14.34653961008879
 30
0.0
 11
29.94447879113499
 21
14.54653961008881
 31
0.0
  0
TEXT
  5
11F
330
2
100
AcDbEntity
  8
TEXT
100
AcDbText
 10
53.46708884276495
 20
8.746539610089001
 30
0.0
 40
1.5
  1
2
100
AcDbText
  0
TEXT
  5
120
330
2
100
AcDbEntity
  8
TEXT
100
AcDbText
 10
53.46708884276495
 20
11.746539610089
 30
0.0
 40
1.5
  1
3
100
AcDbText
  0
ENDSEC
  0
SECTION
  2
OBJECTS
  0
DICTIONARY
  5
7
330
0
100
AcDbDictionary
  3
ACAD_GROUP
350
24
  3
ACAD_LAYOUT
350
B
  3
ACAD_MLINESTYLE
350
25
  3
ACAD_PLOTSETTINGS
350
26
  3
ACAD_PLOTSTYLENAME
350
6
  3
ACDBHEADERROUNDTRIPXREC
350
1BC
  3
ACDBVARIABLEDICTIONARY
350
AB
  0
DICTIONARY
  5
11
330
10
100
AcDbDictionary
280
     1
  3
ACAD_LAYERFILTERS
360
12
  3
ACAD_LAYERSTATES
360
13
  0
DICTIONARY
  5
167
330
2
100
AcDbDictionary
280
     1
  3
ACAD_LAYOUTSELFREF
360
1DD
  0
DICTIONARY
  5
169
330
C
100
AcDbDictionary
280
     1
  3
ACAD_LAYOUTSELFREF
360
1DE
  0
DICTIONARY
  5
24
102
{ACAD_REACTORS
330
7
102
}
330
7
100
AcDbDictionary
  0
DICTIONARY
  5
B
102
{ACAD_REACTORS
330
7
102
}
330
7
100
AcDbDictionary
  0
DICTIONARY
  5
25
102
{ACAD_REACTORS
330
7
102
}
330
7
100
AcDbDictionary
  3
STANDARD
350
28
  0
DICTIONARY
  5
26
102
{ACAD_REACTORS
330
7
102
}
330
7
100
AcDbDictionary
  3
A4_PDF
350
11E
  3
B5_PDF
350
196
  0
ACDBDICTIONARYWDFLT
  5
6
102
{ACAD_REACTORS
330
7
102
}
330
7
100
AcDbDictionary
281
     1
  3
Normal
350
5
100
AcDbDictionaryWithDefault
340
5
  0
DICTIONARY
  5
1BC
102
{ACAD_REACTORS
330
7
102
}
330
7
100
AcDbDictionary
  3
CEPSNTYPE
350
1C6
  3
DIMSTYLEDATA
350
1CA
  3
FINGERPRINTGUID
350
1C7
  3
HYPERLINKBASE
350
1BF
  3
INSUNITS
350
1C5
  3
LAYOUTDICT
350
1C1
  3
LWETCUNION
350
1C4
  3
PLOTSETDICT
350
1C2
  3
PLOTSTYLNAMDICT
350
1C3
  3
PSVPSCALE
350
1C9
  3
PUCSBASE
350
1CD
  3
PUCSORGBACK
350
1D3
  3
PUCSORGBOTTOM
350
1CF
  3
PUCSORGFRONT
350
1D2
  3
PUCSORGLEFT
350
1D0
  3
PUCSORGRIGHT
350
1D1
  3
PUCSORGTOP
350
1CE
  3
PUCSORTHOREF
350
1CB
  3
PUCSORTHOVIEW
350
1CC
  3
STYLESHEET
350
1C0
  3
TSTACKALIGN
350
1BD
  3
TSTACKSIZE
350
1BE
  3
UCSBASE
350
1D6
  3
UCSORGBACK
350
1DC
  3
UCSORGBOTTOM
350
1D8
  3
UCSORGFRONT
350
1DB
  3
UCSORGLEFT
350
1D9
  3
UCSORGRIGHT
350
1DA
  3
UCSORGTOP
350
1D7
  3
UCSORTHOREF
350
1D4
  3
UCSORTHOVIEW
350
1D5
  3
VERSIONGUID
350
1C8
  0
DICTIONARY
  5
AB
102
{ACAD_REACTORS
330
7
102
}
330
7
100
AcDbDictionary
  3
DIMASSOC
350
AD
  3
HIDETEXT
350
AC
  0
DICTIONARY
  5
12
102
{ACAD_REACTORS
330
11
102
}
330
11
100
AcDbDictionary
280
     1
  0
DICTIONARY
  5
13
102
{ACAD_REACTORS
330
11
102
}
330
11
100
AcDbDictionary
  0
XRECORD
  5
1DD
102
{ACAD_REACTORS
330
167
102
}
330
167
100
AcDbXrecord
340
2
  0
XRECORD
  5
1DE
102
{ACAD_REACTORS
330
169
102
}
330
169
100
AcDbXrecord
340
C
  0
MLINESTYLE
  5
28
102
{ACAD_REACTORS
330
25
102
}
330
25
100
AcDbMlineStyle
  2
STANDARD
 70
     0
  3

 62
   256
 51
90.0
 52
90.0
 71
     2
 49
0.5
 62
   256
  6
BYLAYER
 49
-0.5
 62
   256
  6
BYLAYER
  0
PLOTSETTINGS
  5
11E
102
{ACAD_REACTORS
330
26
102
}
330
26
100
AcDbPlotSettings
  1
A4_PDF
  2
クセロPDF2
  4
A4
  6

 40
3.174999952316283
 41
3.174999952316283
 42
3.175003051757812
 43
3.17498779296875
 44
209.9733276367186
 45
296.9259948730469
 46
2.459999999999999
 47
0.0
 48
1228.76236478314
 49
-179.1153428532894
140
1301.861775619068
141
-129.1283612301167
142
1.0
143
0.2515672631009345
 70
  1684
 72
     1
 73
     1
 74
     4
  7

 75
     0
147
3.975080015076433
148
-1228.76236478314
149
179.1153428532894
  0
PLOTSETTINGS
  5
196
102
{ACAD_REACTORS
330
26
102
}
330
26
100
AcDbPlotSettings
  1
B5_PDF
  2
クセロPDF2
  4
B5 (JIS)
  6

 40
3.174999952316284
 41
3.174999952316284
 42
3.175003051757812
 43
3.175003051757812
 44
181.9486694335937
 45
256.9633178710937
 46
0.0
 47
0.0
 48
0.0
 49
0.0
140
0.0
141
0.0
142
1.0
143
0.3329471661527092
 70
  1712
 72
     1
 73
     1
 74
     0
  7

 75
     0
147
3.003479535673059
148
-1221.927003764124
149
183.1157172027165
  0
ACDBPLACEHOLDER
  5
5
102
{ACAD_REACTORS
330
6
102
}
330
6
100
AcDbPlaceHolder
280
     0
  0
XRECORD
  5
1C6
102
{ACAD_REACTORS
330
1BC
102
}
330
1BC
100
AcDbXrecord
 90
        0
  0
XRECORD
  5
1CA
102
{ACAD_REACTORS
330
1BC
102
}
330
1BC
100
AcDbXrecord
1000
DSTYLE
1002
{
1070
    79
 70
     2
1070
   179
 70
     2
1002
}
  0
XRECORD
  5
1C7
102
{ACAD_REACTORS
330
1BC
102
}
330
1BC
100
AcDbXrecord
  1
{19C29E87-2D4A-44F5-9CA9-8E2C957C07B1}
  0
XRECORD
  5
1BF
102
{ACAD_REACTORS
330
1BC
102
}
330
1BC
100
AcDbXrecord
  1

  0
XRECORD
  5
1C5
102
{ACAD_REACTORS
330
1BC
102
}
330
1BC
100
AcDbXrecord
 90
        0
  0
XRECORD
  5
1C1
102
{ACAD_REACTORS
330
1BC
102
}
330
1BC
100
AcDbXrecord
340
B
  0
XRECORD
  5
1C4
102
{ACAD_REACTORS
330
1BC
102
}
330
1BC
100
AcDbXrecord
 90
    10781
  0
XRECORD
  5
1C2
102
{ACAD_REACTORS
330
1BC
102
}
330
1BC
100
AcDbXrecord
340
26
  0
XRECORD
  5
1C3
102
{ACAD_REACTORS
330
1BC
102
}
330
1BC
100
AcDbXrecord
340
6
  0
XRECORD
  5
1C9
102
{ACAD_REACTORS
330
1BC
102
}
330
1BC
100
AcDbXrecord
 40
0.0
  0
XRECORD
  5
1CD
102
{ACAD_REACTORS
330
1BC
102
}
330
1BC
100
AcDbXrecord
340
0
  0
XRECORD
  5
1D3
102
{ACAD_REACTORS
330
1BC
102
}
330
1BC
100
AcDbXrecord
 10
0.0
 20
0.0
 30
0.0
  0
XRECORD
  5
1CF
102
{ACAD_REACTORS
330
1BC
102
}
330
1BC
100
AcDbXrecord
 10
0.0
 20
0.0
 30
0.0
  0
XRECORD
  5
1D2
102
{ACAD_REACTORS
330
1BC
102
}
330
1BC
100
AcDbXrecord
 10
0.0
 20
0.0
 30
0.0
  0
XRECORD
  5
1D0
102
{ACAD_REACTORS
330
1BC
102
}
330
1BC
100
AcDbXrecord
 10
0.0
 20
0.0
 30
0.0
  0
XRECORD
  5
1D1
102
{ACAD_REACTORS
330
1BC
102
}
330
1BC
100
AcDbXrecord
 10
0.0
 20
0.0
 30
0.0
  0
XRECORD
  5
1CE
102
{ACAD_REACTORS
330
1BC
102
}
330
1BC
100
AcDbXrecord
 10
0.0
 20
0.0
 30
0.0
  0
XRECORD
  5
1CB
102
{ACAD_REACTORS
330
1BC
102
}
330
1BC
100
AcDbXrecord
340
0
  0
XRECORD
  5
1CC
102
{ACAD_REACTORS
330
1BC
102
}
330
1BC
100
AcDbXrecord
 70
     0
  0
XRECORD
  5
1C0
102
{ACAD_REACTORS
330
1BC
102
}
330
1BC
100
AcDbXrecord
  1

  0
XRECORD
  5
1BD
102
{ACAD_REACTORS
330
1BC
102
}
330
1BC
100
AcDbXrecord
 90
        1
  0
XRECORD
  5
1BE
102
{ACAD_REACTORS
330
1BC
102
}
330
1BC
100
AcDbXrecord
 90
       70
  0
XRECORD
  5
1D6
102
{ACAD_REACTORS
330
1BC
102
}
330
1BC
100
AcDbXrecord
340
0
  0
XRECORD
  5
1DC
102
{ACAD_REACTORS
330
1BC
102
}
330
1BC
100
AcDbXrecord
 10
0.0
 20
0.0
 30
0.0
  0
XRECORD
  5
1D8
102
{ACAD_REACTORS
330
1BC
102
}
330
1BC
100
AcDbXrecord
 10
0.0
 20
0.0
 30
0.0
  0
XRECORD
  5
1DB
102
{ACAD_REACTORS
330
1BC
102
}
330
1BC
100
AcDbXrecord
 10
0.0
 20
0.0
 30
0.0
  0
XRECORD
  5
1D9
102
{ACAD_REACTORS
330
1BC
102
}
330
1BC
100
AcDbXrecord
 10
0.0
 20
0.0
 30
0.0
  0
XRECORD
  5
1DA
102
{ACAD_REACTORS
330
1BC
102
}
330
1BC
100
AcDbXrecord
 10
0.0
 20
0.0
 30
0.0
  0
XRECORD
  5
1D7
102
{ACAD_REACTORS
330
1BC
102
}
330
1BC
100
AcDbXrecord
 10
0.0
 20
0.0
 30
0.0
  0
XRECORD
  5
1D4
102
{ACAD_REACTORS
330
1BC
102
}
330
1BC
100
AcDbXrecord
340
0
  0
XRECORD
  5
1D5
102
{ACAD_REACTORS
330
1BC
102
}
330
1BC
100
AcDbXrecord
 70
     0
  0
XRECORD
  5
1C8
102
{ACAD_REACTORS
330
1BC
102
}
330
1BC
100
AcDbXrecord
  1
{0B120A4B-24C8-4C97-ADD1-466E51988498}
  0
DICTIONARYVAR
  5
AD
102
{ACAD_REACTORS
330
AB
102
}
330
AB
100
DictionaryVariables
280
     0
  1
1
  0
DICTIONARYVAR
  5
AC
102
{ACAD_REACTORS
330
AB
102
}
330
AB
100
DictionaryVariables
280
     0
  1
1
  0
ENDSEC
  0
EOF
