  0
SECTION
  2
HEADER
  9
$ACADVER
  1
AC1014
  9
$ACADMAINTVER
 70
     9
  9
$DWGCODEPAGE
  3
ANSI_932
  9
$INSBASE
 10
0.0
 20
0.0
 30
0.0
  9
$EXTMIN
 10
11.07421974078079
 20
10.52751230044236
 30
-0.0000000349181948
  9
$EXTMAX
 10
61.5426641348082
 20
57.72683757115953
 30
0.0000000814935746
  9
$LIMMIN
 10
0.0
 20
0.0
  9
$LIMMAX
 10
420.0
 20
297.0
  9
$ORTHOMODE
 70
     1
  9
$REGENMODE
 70
     1
  9
$FILLMODE
 70
     1
  9
$QTEXTMODE
 70
     0
  9
$MIRRTEXT
 70
     1
  9
$DRAGMODE
 70
     2
  9
$LTSCALE
 40
1.0
  9
$OSMODE
 70
   191
  9
$ATTMODE
 70
     1
  9
$TEXTSIZE
 40
5.0
  9
$TRACEWID
 40
1.0
  9
$TEXTSTYLE
  7
STANDARD
  9
$CLAYER
  8
OBJECT
  9
$CELTYPE
  6
BYLAYER
  9
$CECOLOR
 62
   256
  9
$CELTSCALE
 40
1.0
  9
$DELOBJ
 70
     1
  9
$DISPSILH
 70
     0
  9
$DIMSCALE
 40
1.0
  9
$DIMASZ
 40
2.5
  9
$DIMEXO
 40
0.625
  9
$DIMDLI
 40
3.75
  9
$DIMRND
 40
0.0
  9
$DIMDLE
 40
0.0
  9
$DIMEXE
 40
0.625
  9
$DIMTP
 40
0.0
  9
$DIMTM
 40
0.0
  9
$DIMTXT
 40
2.5
  9
$DIMCEN
 40
0.0
  9
$DIMTSZ
 40
0.0
  9
$DIMTOL
 70
     0
  9
$DIMLIM
 70
     0
  9
$DIMTIH
 70
     0
  9
$DIMTOH
 70
     0
  9
$DIMSE1
 70
     0
  9
$DIMSE2
 70
     0
  9
$DIMTAD
 70
     1
  9
$DIMZIN
 70
     8
  9
$DIMBLK
  1

  9
$DIMASO
 70
     1
  9
$DIMSHO
 70
     1
  9
$DIMPOST
  1

  9
$DIMAPOST
  1

  9
$DIMALT
 70
     0
  9
$DIMALTD
 70
     3
  9
$DIMALTF
 40
0.03937007874016
  9
$DIMLFAC
 40
1.0
  9
$DIMTOFL
 70
     1
  9
$DIMTVP
 40
0.0
  9
$DIMTIX
 70
     0
  9
$DIMSOXD
 70
     0
  9
$DIMSAH
 70
     0
  9
$DIMBLK1
  1

  9
$DIMBLK2
  1

  9
$DIMSTYLE
  2
STANDARD
  9
$DIMCLRD
 70
     3
  9
$DIMCLRE
 70
     3
  9
$DIMCLRT
 70
     3
  9
$DIMTFAC
 40
1.0
  9
$DIMGAP
 40
0.625
  9
$DIMJUST
 70
     0
  9
$DIMSD1
 70
     0
  9
$DIMSD2
 70
     0
  9
$DIMTOLJ
 70
     0
  9
$DIMTZIN
 70
     8
  9
$DIMALTZ
 70
     0
  9
$DIMALTTZ
 70
     0
  9
$DIMFIT
 70
     3
  9
$DIMUPT
 70
     0
  9
$DIMUNIT
 70
     2
  9
$DIMDEC
 70
     2
  9
$DIMTDEC
 70
     2
  9
$DIMALTU
 70
     2
  9
$DIMALTTD
 70
     3
  9
$DIMTXSTY
  7
STANDARD
  9
$DIMAUNIT
 70
     0
  9
$LUNITS
 70
     2
  9
$LUPREC
 70
     4
  9
$SKETCHINC
 40
1.0
  9
$FILLETRAD
 40
0.5
  9
$AUNITS
 70
     0
  9
$AUPREC
 70
     0
  9
$MENU
  1
.
  9
$ELEVATION
 40
0.0
  9
$PELEVATION
 40
0.0
  9
$THICKNESS
 40
0.0
  9
$LIMCHECK
 70
     0
  9
$BLIPMODE
 70
     0
  9
$CHAMFERA
 40
0.2
  9
$CHAMFERB
 40
0.2
  9
$CHAMFERC
 40
20.0
  9
$CHAMFERD
 40
0.0
  9
$SKPOLY
 70
     0
  9
$TDCREATE
 40
2452201.737577928
  9
$TDUPDATE
 40
2454518.444881365
  9
$TDINDWG
 40
0.4173845370
  9
$TDUSRTIMER
 40
0.4173845370
  9
$USRTIMER
 70
     1
  9
$ANGBASE
 50
0.0
  9
$ANGDIR
 70
     0
  9
$PDMODE
 70
     0
  9
$PDSIZE
 40
0.0
  9
$PLINEWID
 40
0.0
  9
$COORDS
 70
     0
  9
$SPLFRAME
 70
     0
  9
$SPLINETYPE
 70
     6
  9
$SPLINESEGS
 70
     8
  9
$ATTDIA
 70
     0
  9
$ATTREQ
 70
     1
  9
$HANDLING
 70
 22529
  9
$HANDSEED
  5
1C9
  9
$SURFTAB1
 70
     6
  9
$SURFTAB2
 70
     6
  9
$SURFTYPE
 70
     6
  9
$SURFU
 70
     6
  9
$SURFV
 70
     6
  9
$UCSNAME
  2

  9
$UCSORG
 10
0.0
 20
0.0
 30
0.0
  9
$UCSXDIR
 10
1.0
 20
0.0
 30
0.0
  9
$UCSYDIR
 10
0.0
 20
1.0
 30
0.0
  9
$PUCSNAME
  2

  9
$PUCSORG
 10
0.0
 20
0.0
 30
0.0
  9
$PUCSXDIR
 10
1.0
 20
0.0
 30
0.0
  9
$PUCSYDIR
 10
0.0
 20
1.0
 30
0.0
  9
$USERI1
 70
     0
  9
$USERI2
 70
     0
  9
$USERI3
 70
     0
  9
$USERI4
 70
     0
  9
$USERI5
 70
     0
  9
$USERR1
 40
0.0
  9
$USERR2
 40
0.0
  9
$USERR3
 40
0.0
  9
$USERR4
 40
0.0
  9
$USERR5
 40
0.0
  9
$WORLDVIEW
 70
     1
  9
$SHADEDGE
 70
     3
  9
$SHADEDIF
 70
    70
  9
$TILEMODE
 70
     1
  9
$MAXACTVP
 70
    64
  9
$PINSBASE
 10
0.0
 20
0.0
 30
0.0
  9
$PLIMCHECK
 70
     0
  9
$PEXTMIN
 10
0.0
 20
0.0
 30
0.0
  9
$PEXTMAX
 10
297.0
 20
210.0
 30
0.0
  9
$PLIMMIN
 10
-0.0045502804250646
 20
-0.0058305224667947
  9
$PLIMMAX
 10
296.9954497195749
 20
209.9941694775332
  9
$UNITMODE
 70
     0
  9
$VISRETAIN
 70
     1
  9
$PLINEGEN
 70
     0
  9
$PSLTSCALE
 70
     1
  9
$TREEDEPTH
 70
  3020
  9
$PICKSTYLE
 70
     1
  9
$CMLSTYLE
  2
STANDARD
  9
$CMLJUST
 70
     0
  9
$CMLSCALE
 40
20.0
  9
$PROXYGRAPHICS
 70
     1
  9
$MEASUREMENT
 70
     1
  0
ENDSEC
  0
SECTION
  2
CLASSES
  0
CLASS
  1
ACDBDICTIONARYWDFLT
  2
AcDbDictionaryWithDefault
  3
AutoCAD 2000
 90
        0
280
     0
281
     0
  0
CLASS
  1
ACDBPLACEHOLDER
  2
AcDbPlaceHolder
  3
AutoCAD 2000
 90
        0
280
     0
281
     0
  0
CLASS
  1
LAYOUT
  2
AcDbLayout
  3
AutoCAD 2000
 90
        0
280
     0
281
     0
  0
CLASS
  1
DICTIONARYVAR
  2
AcDbDictionaryVar
  3
AutoCAD 2000
 90
        0
280
     0
281
     0
  0
CLASS
  1
PLOTSETTINGS
  2
AcDbPlotSettings
  3
AutoCAD 2000
 90
        0
280
     0
281
     0
  0
CLASS
  1
DIMASSOC
  2
AcDbDimAssoc
  3
"AcDbDimAssoc|Product Desc:     AcDim ARX App For Dimension|Company:          Autodesk, Inc.|WEB Address:      www.autodesk.com"
 90
        0
280
     0
281
     0
  0
CLASS
  1
LONG_TRANSACTION
  2
AcDbLongTransaction
  3
AutoCAD 2000
 90
        0
280
     0
281
     0
  0
CLASS
  1
LWPOLYLINE
  2
AcDbPolyline
  3
AutoCAD 2000
 90
        0
280
     0
281
     1
  0
CLASS
  1
HATCH
  2
AcDbHatch
  3
AutoCAD 2000
 90
        0
280
     0
281
     1
  0
CLASS
  1
XRECORD
  2
AcDbXrecord
  3
AutoCAD 2000
 90
        0
280
     0
281
     0
  0
ENDSEC
  0
SECTION
  2
TABLES
  0
TABLE
  2
VPORT
  5
1B
330
0
100
AcDbSymbolTable
 70
     8
  0
VPORT
  5
1A3
330
1B
100
AcDbSymbolTableRecord
100
AcDbViewportTableRecord
  2
*ACTIVE
 70
     0
 10
0.0
 20
0.0
 11
1.0
 21
1.0
 12
32.35107498982813
 22
29.62930353163898
 13
0.0
 23
0.0
 14
10.0
 24
10.0
 15
10.0
 25
10.0
 16
0.0
 26
0.0
 36
1.0
 17
0.0
 27
0.0
 37
0.0
 40
100.9157414318403
 41
1.493654822335025
 42
50.0
 43
0.0
 44
0.0
 50
0.0
 51
0.0
 71
     0
 72
   100
 73
     1
 74
     3
 75
     0
 76
     0
 77
     0
 78
     0
  0
ENDTAB
  0
TABLE
  2
LTYPE
  5
16
330
0
100
AcDbSymbolTable
 70
     1
  0
LTYPE
  5
17
330
16
100
AcDbSymbolTableRecord
100
AcDbLinetypeTableRecord
  2
BYBLOCK
 70
     0
  3

 72
    65
 73
     0
 40
0.0
  0
LTYPE
  5
18
330
16
100
AcDbSymbolTableRecord
100
AcDbLinetypeTableRecord
  2
BYLAYER
 70
     0
  3

 72
    65
 73
     0
 40
0.0
  0
LTYPE
  5
8
330
16
100
AcDbSymbolTableRecord
100
AcDbLinetypeTableRecord
  2
CONTINUOUS
 70
     0
  3
Solid line
 72
    65
 73
     0
 40
0.0
  0
ENDTAB
  0
TABLE
  2
LAYER
  5
10
102
{ACAD_XDICTIONARY
360
11
102
}
330
0
100
AcDbSymbolTable
 70
     4
  0
LAYER
  5
4
330
10
100
AcDbSymbolTableRecord
100
AcDbLayerTableRecord
  2
0
 70
     0
 62
     7
  6
CONTINUOUS
  0
LAYER
  5
9C
330
10
100
AcDbSymbolTableRecord
100
AcDbLayerTableRecord
  2
TEXT
 70
     0
 62
     3
  6
CONTINUOUS
  0
LAYER
  5
25
330
10
100
AcDbSymbolTableRecord
100
AcDbLayerTableRecord
  2
OBJECT
 70
     0
 62
     7
  6
CONTINUOUS
  0
LAYER
  5
FC
330
10
100
AcDbSymbolTableRecord
100
AcDbLayerTableRecord
  2
DEFPOINTS
 70
     0
 62
     7
  6
CONTINUOUS
  0
ENDTAB
  0
TABLE
  2
STYLE
  5
13
330
0
100
AcDbSymbolTable
 70
     2
  0
STYLE
  5
14
330
13
100
AcDbSymbolTableRecord
100
AcDbTextStyleTableRecord
  2
STANDARD
 70
     0
 40
0.0
 41
1.0
 50
0.0
 71
     0
 42
5.0
  3
simplex.shx
  4
bigfont.shx
  0
ENDTAB
  0
TABLE
  2
VIEW
  5
19
330
0
100
AcDbSymbolTable
 70
     0
  0
ENDTAB
  0
TABLE
  2
UCS
  5
1A
330
0
100
AcDbSymbolTable
 70
     0
  0
ENDTAB
  0
TABLE
  2
APPID
  5
1D
330
0
100
AcDbSymbolTable
 70
     1
  0
APPID
  5
1E
330
1D
100
AcDbSymbolTableRecord
100
AcDbRegAppTableRecord
  2
ACAD
 70
     0
  0
ENDTAB
  0
TABLE
  2
DIMSTYLE
  5
1F
330
0
100
AcDbSymbolTable
 70
     1
  0
DIMSTYLE
105
20
330
1F
100
AcDbSymbolTableRecord
100
AcDbDimStyleTableRecord
  2
STANDARD
 70
     0
  3

  4

  5

  6

  7

 40
1.0
 41
2.5
 42
0.625
 43
3.75
 44
0.625
 45
0.0
 46
0.0
 47
0.0
 48
0.0
140
2.5
141
0.0
142
0.0
143
0.03937007874016
144
1.0
145
0.0
146
1.0
147
0.625
 71
     0
 72
     0
 73
     0
 74
     0
 75
     0
 76
     0
 77
     1
 78
     8
170
     0
171
     3
172
     1
173
     0
174
     0
175
     0
176
     3
177
     3
178
     3
270
     2
271
     2
272
     2
273
     2
274
     3
340
14
275
     0
280
     0
281
     0
282
     0
283
     0
284
     8
285
     0
286
     0
287
     3
288
     0
  0
ENDTAB
  0
TABLE
  2
BLOCK_RECORD
  5
1
330
0
100
AcDbSymbolTable
 70
     2
  0
BLOCK_RECORD
  5
2
102
{ACAD_XDICTIONARY
360
1C5
102
}
330
1
100
AcDbSymbolTableRecord
100
AcDbBlockTableRecord
  2
*MODEL_SPACE
  0
BLOCK_RECORD
  5
C
102
{ACAD_XDICTIONARY
360
1C7
102
}
330
1
100
AcDbSymbolTableRecord
100
AcDbBlockTableRecord
  2
*PAPER_SPACE
  0
ENDTAB
  0
ENDSEC
  0
SECTION
  2
BLOCKS
  0
BLOCK
  5
3
330
2
100
AcDbEntity
  8
0
100
AcDbBlockBegin
  2
*MODEL_SPACE
 70
     2
 10
0.0
 20
0.0
 30
0.0
  3
*MODEL_SPACE
  1

  0
ENDBLK
  5
9
330
2
100
AcDbEntity
  8
0
100
AcDbBlockEnd
  0
BLOCK
  5
D
330
C
100
AcDbEntity
 67
     1
  8
0
100
AcDbBlockBegin
  2
*PAPER_SPACE
 70
     0
 10
0.0
 20
0.0
 30
0.0
  3
*PAPER_SPACE
  1

  0
ENDBLK
  5
E
330
C
100
AcDbEntity
 67
     1
  8
0
100
AcDbBlockEnd
  0
ENDSEC
  0
SECTION
  2
ENTITIES
  0
TEXT
  5
27
330
2
100
AcDbEntity
  8
OBJECT
100
AcDbText
 10
13.65374799746509
 20
20.62629315730595
 30
0.0
 40
1.0
  1
H　　JST　　20
 50
90.0
100
AcDbText
  0
LINE
  5
28
330
2
100
AcDbEntity
  8
OBJECT
100
AcDbLine
 10
23.10192137166489
 20
11.84057228758339
 30
0.0
 11
23.10192137166489
 21
38.94057228758356
 31
0.0
  0
LINE
  5
29
330
2
100
AcDbEntity
  8
OBJECT
100
AcDbLine
 10
11.1019213716649
 20
10.54057228758344
 30
0.0
 11
11.10192137166492
 21
40.24057228758346
 31
0.0
  0
LINE
  5
2A
330
2
100
AcDbEntity
  8
OBJECT
100
AcDbLine
 10
12.1019213716649
 20
14.14057228758346
 30
0.0
 11
12.1019213716649
 21
36.64057228758349
 31
0.0
  0
LINE
  5
2B
330
2
100
AcDbEntity
  8
OBJECT
100
AcDbLine
 10
20.50192137166493
 20
23.34057228758339
 30
0.0
 11
20.50192137166493
 21
24.94057228758342
 31
0.0
  0
LINE
  5
2C
330
2
100
AcDbEntity
  8
OBJECT
100
AcDbLine
 10
21.50192137166493
 20
23.34057228758339
 30
0.0
 11
21.50192137166493
 21
24.94057228758342
 31
0.0
  0
LINE
  5
2D
330
2
100
AcDbEntity
  8
OBJECT
100
AcDbLine
 10
22.90192137166491
 20
18.49057228758337
 30
0.0
 11
22.90192137166491
 21
32.29057228758347
 31
0.0
  0
LINE
  5
2E
330
2
100
AcDbEntity
  8
OBJECT
100
AcDbLine
 10
11.1019213716649
 20
10.54057228758344
 30
0.0
 11
14.10192137166487
 21
10.54057228758344
 31
0.0
  0
LINE
  5
2F
330
2
100
AcDbEntity
  8
OBJECT
100
AcDbLine
 10
14.1019213716649
 20
10.54057228758344
 30
0.0
 11
14.10192137166487
 21
14.14057228758346
 31
0.0
  0
LINE
  5
30
330
2
100
AcDbEntity
  8
OBJECT
100
AcDbLine
 10
22.90192137166491
 20
11.64057228758341
 30
0.0
 11
22.90192137166491
 21
17.29057228758338
 31
0.0
  0
LINE
  5
31
330
2
100
AcDbEntity
  8
OBJECT
100
AcDbLine
 10
22.90192137166491
 20
11.64057228758341
 30
0.0
 11
14.10192137166487
 21
11.64057228758343
 31
0.0
  0
LINE
  5
32
330
2
100
AcDbEntity
  8
OBJECT
100
AcDbLine
 10
23.10192137166489
 20
11.84057228758337
 30
0.0
 11
14.10192137166487
 21
11.84057228758342
 31
0.0
  0
LINE
  5
33
330
2
100
AcDbEntity
  8
OBJECT
100
AcDbLine
 10
22.90192137166491
 20
11.64057228758341
 30
0.0
 11
23.10192137166489
 21
11.84057228758339
 31
0.0
  0
LINE
  5
34
330
2
100
AcDbEntity
  8
OBJECT
100
AcDbLine
 10
18.90192137166485
 20
13.64057228758346
 30
0.0
 11
21.5019213716649
 21
13.64057228758343
 31
0.0
  0
LINE
  5
35
330
2
100
AcDbEntity
  8
OBJECT
100
AcDbLine
 10
18.90192137166479
 20
14.64057228758346
 30
0.0
 11
21.5019213716649
 21
14.64057228758341
 31
0.0
  0
LINE
  5
36
330
2
100
AcDbEntity
  8
OBJECT
100
AcDbLine
 10
18.60192137166481
 20
14.94057228758348
 30
0.0
 11
21.5019213716649
 21
14.94057228758348
 31
0.0
  0
LINE
  5
37
330
2
100
AcDbEntity
  8
OBJECT
100
AcDbLine
 10
18.60192137166481
 20
13.34057228758345
 30
0.0
 11
21.5019213716649
 21
13.34057228758345
 31
0.0
  0
LINE
  5
38
330
2
100
AcDbEntity
  8
OBJECT
100
AcDbLine
 10
18.90192137166479
 20
17.14057228758344
 30
0.0
 11
21.50192137166493
 21
17.14057228758341
 31
0.0
  0
LINE
  5
39
330
2
100
AcDbEntity
  8
OBJECT
100
AcDbLine
 10
18.90192137166485
 20
16.14057228758343
 30
0.0
 11
21.5019213716649
 21
16.14057228758341
 31
0.0
  0
LINE
  5
3A
330
2
100
AcDbEntity
  8
OBJECT
100
AcDbLine
 10
18.60192137166481
 20
15.84057228758342
 30
0.0
 11
21.5019213716649
 21
15.84057228758342
 31
0.0
  0
LINE
  5
3B
330
2
100
AcDbEntity
  8
OBJECT
100
AcDbLine
 10
18.60192137166481
 20
17.44057228758345
 30
0.0
 11
21.5019213716649
 21
17.44057228758345
 31
0.0
  0
LINE
  5
3C
330
2
100
AcDbEntity
  8
OBJECT
100
AcDbLine
 10
18.60192137166481
 20
20.84057228758339
 30
0.0
 11
21.5019213716649
 21
20.84057228758339
 31
0.0
  0
LINE
  5
3D
330
2
100
AcDbEntity
  8
OBJECT
100
AcDbLine
 10
18.90192137166485
 20
21.14057228758341
 30
0.0
 11
21.5019213716649
 21
21.14057228758338
 31
0.0
  0
LINE
  5
3E
330
2
100
AcDbEntity
  8
OBJECT
100
AcDbLine
 10
18.90192137166479
 20
19.64057228758344
 30
0.0
 11
21.5019213716649
 21
19.64057228758338
 31
0.0
  0
LINE
  5
3F
330
2
100
AcDbEntity
  8
OBJECT
100
AcDbLine
 10
18.90192137166485
 20
18.64057228758343
 30
0.0
 11
21.50192137166493
 21
18.64057228758341
 31
0.0
  0
LINE
  5
40
330
2
100
AcDbEntity
  8
OBJECT
100
AcDbLine
 10
18.60192137166481
 20
18.34057228758342
 30
0.0
 11
21.5019213716649
 21
18.34057228758342
 31
0.0
  0
LINE
  5
41
330
2
100
AcDbEntity
  8
OBJECT
100
AcDbLine
 10
18.60192137166481
 20
19.94057228758345
 30
0.0
 11
21.5019213716649
 21
19.94057228758345
 31
0.0
  0
LINE
  5
42
330
2
100
AcDbEntity
  8
OBJECT
100
AcDbLine
 10
18.60192137166481
 20
22.44057228758342
 30
0.0
 11
21.5019213716649
 21
22.44057228758342
 31
0.0
  0
LINE
  5
43
330
2
100
AcDbEntity
  8
OBJECT
100
AcDbLine
 10
18.90192137166479
 20
22.14057228758341
 30
0.0
 11
21.5019213716649
 21
22.14057228758335
 31
0.0
  0
LINE
  5
44
330
2
100
AcDbEntity
  8
OBJECT
100
AcDbLine
 10
18.90192137166485
 20
23.64057228758341
 30
0.0
 11
21.5019213716649
 21
23.64057228758338
 31
0.0
  0
LINE
  5
45
330
2
100
AcDbEntity
  8
OBJECT
100
AcDbLine
 10
18.60192137166481
 20
23.34057228758339
 30
0.0
 11
21.5019213716649
 21
23.34057228758339
 31
0.0
  0
LINE
  5
46
330
2
100
AcDbEntity
  8
OBJECT
100
AcDbLine
 10
14.10192137166487
 20
14.14057228758343
 30
0.0
 11
12.1019213716649
 21
14.14057228758343
 31
0.0
  0
LINE
  5
47
330
2
100
AcDbEntity
  8
OBJECT
100
AcDbLine
 10
18.90192137166485
 20
17.14057228758341
 30
0.0
 11
18.60192137166484
 21
17.44057228758345
 31
0.0
  0
LINE
  5
48
330
2
100
AcDbEntity
  8
OBJECT
100
AcDbLine
 10
18.60192137166481
 20
15.84057228758342
 30
0.0
 11
18.90192137166485
 21
16.14057228758341
 31
0.0
  0
LINE
  5
49
330
2
100
AcDbEntity
  8
OBJECT
100
AcDbLine
 10
18.60192137166481
 20
13.34057228758345
 30
0.0
 11
18.90192137166485
 21
13.64057228758343
 31
0.0
  0
LINE
  5
4A
330
2
100
AcDbEntity
  8
OBJECT
100
AcDbLine
 10
18.90192137166485
 20
14.64057228758344
 30
0.0
 11
18.60192137166484
 21
14.94057228758348
 31
0.0
  0
LINE
  5
4B
330
2
100
AcDbEntity
  8
OBJECT
100
AcDbLine
 10
18.60192137166481
 20
20.84057228758339
 30
0.0
 11
18.90192137166485
 21
21.14057228758338
 31
0.0
  0
LINE
  5
4C
330
2
100
AcDbEntity
  8
OBJECT
100
AcDbLine
 10
18.90192137166485
 20
22.14057228758338
 30
0.0
 11
18.60192137166484
 21
22.44057228758342
 31
0.0
  0
LINE
  5
4D
330
2
100
AcDbEntity
  8
OBJECT
100
AcDbLine
 10
18.60192137166481
 20
23.34057228758339
 30
0.0
 11
18.90192137166485
 21
23.64057228758338
 31
0.0
  0
LINE
  5
4E
330
2
100
AcDbEntity
  8
OBJECT
100
AcDbLine
 10
18.60192137166481
 20
18.34057228758342
 30
0.0
 11
18.90192137166485
 21
18.64057228758341
 31
0.0
  0
LINE
  5
4F
330
2
100
AcDbEntity
  8
OBJECT
100
AcDbLine
 10
18.90192137166485
 20
19.64057228758341
 30
0.0
 11
18.60192137166484
 21
19.94057228758345
 31
0.0
  0
ARC
  5
50
330
2
100
AcDbEntity
  8
OBJECT
100
AcDbCircle
 10
22.10192137166494
 20
17.89057228758341
 30
0.0
 40
0.9999999999999829
100
AcDbArc
 50
323.1301023541556
 51
36.86989764584307
  0
LINE
  5
51
330
2
100
AcDbEntity
  8
OBJECT
100
AcDbLine
 10
20.50192137166493
 20
15.84057228758342
 30
0.0
 11
20.50192137166493
 21
17.44057228758345
 31
0.0
  0
LINE
  5
52
330
2
100
AcDbEntity
  8
OBJECT
100
AcDbLine
 10
21.50192137166493
 20
15.84057228758342
 30
0.0
 11
21.50192137166493
 21
17.44057228758345
 31
0.0
  0
LINE
  5
53
330
2
100
AcDbEntity
  8
OBJECT
100
AcDbLine
 10
21.50192137166493
 20
17.29057228758341
 30
0.0
 11
22.90192137166491
 21
17.29057228758341
 31
0.0
  0
LINE
  5
54
330
2
100
AcDbEntity
  8
OBJECT
100
AcDbLine
 10
21.50192137166493
 20
13.34057228758345
 30
0.0
 11
21.50192137166493
 21
14.94057228758348
 31
0.0
  0
LINE
  5
55
330
2
100
AcDbEntity
  8
OBJECT
100
AcDbLine
 10
20.50192137166493
 20
13.34057228758345
 30
0.0
 11
20.50192137166493
 21
14.94057228758348
 31
0.0
  0
LINE
  5
56
330
2
100
AcDbEntity
  8
OBJECT
100
AcDbLine
 10
21.50192137166493
 20
20.84057228758339
 30
0.0
 11
21.50192137166493
 21
22.44057228758342
 31
0.0
  0
LINE
  5
57
330
2
100
AcDbEntity
  8
OBJECT
100
AcDbLine
 10
20.50192137166493
 20
20.84057228758339
 30
0.0
 11
20.50192137166493
 21
22.44057228758342
 31
0.0
  0
LINE
  5
58
330
2
100
AcDbEntity
  8
OBJECT
100
AcDbLine
 10
21.50192137166493
 20
18.4905722875834
 30
0.0
 11
22.90192137166491
 21
18.4905722875834
 31
0.0
  0
LINE
  5
59
330
2
100
AcDbEntity
  8
OBJECT
100
AcDbLine
 10
20.50192137166493
 20
18.34057228758342
 30
0.0
 11
20.50192137166493
 21
19.94057228758345
 31
0.0
  0
LINE
  5
5A
330
2
100
AcDbEntity
  8
OBJECT
100
AcDbLine
 10
21.50192137166493
 20
18.34057228758342
 30
0.0
 11
21.50192137166493
 21
19.94057228758345
 31
0.0
  0
LINE
  5
5B
330
2
100
AcDbEntity
  8
OBJECT
100
AcDbLine
 10
11.1019213716649
 20
40.24057228758349
 30
0.0
 11
14.10192137166487
 21
40.24057228758349
 31
0.0
  0
LINE
  5
5C
330
2
100
AcDbEntity
  8
OBJECT
100
AcDbLine
 10
22.90192137166491
 20
33.49057228758346
 30
0.0
 11
22.90192137166491
 21
39.14057228758349
 31
0.0
  0
LINE
  5
5D
330
2
100
AcDbEntity
  8
OBJECT
100
AcDbLine
 10
18.90192137166479
 20
24.64057228758341
 30
0.0
 11
21.5019213716649
 21
24.64057228758335
 31
0.0
  0
LINE
  5
5E
330
2
100
AcDbEntity
  8
OBJECT
100
AcDbLine
 10
18.60192137166481
 20
24.94057228758342
 30
0.0
 11
21.5019213716649
 21
24.94057228758342
 31
0.0
  0
LINE
  5
5F
330
2
100
AcDbEntity
  8
OBJECT
100
AcDbLine
 10
18.60192137166481
 20
34.9405722875835
 30
0.0
 11
21.5019213716649
 21
34.9405722875835
 31
0.0
  0
LINE
  5
60
330
2
100
AcDbEntity
  8
OBJECT
100
AcDbLine
 10
18.90192137166485
 20
34.64057228758349
 30
0.0
 11
21.5019213716649
 21
34.64057228758352
 31
0.0
  0
LINE
  5
61
330
2
100
AcDbEntity
  8
OBJECT
100
AcDbLine
 10
18.60192137166481
 20
30.84057228758348
 30
0.0
 11
21.5019213716649
 21
30.84057228758348
 31
0.0
  0
LINE
  5
62
330
2
100
AcDbEntity
  8
OBJECT
100
AcDbLine
 10
18.60192137166481
 20
32.4405722875835
 30
0.0
 11
21.5019213716649
 21
32.4405722875835
 31
0.0
  0
LINE
  5
63
330
2
100
AcDbEntity
  8
OBJECT
100
AcDbLine
 10
18.90192137166485
 20
32.14057228758349
 30
0.0
 11
21.5019213716649
 21
32.14057228758352
 31
0.0
  0
LINE
  5
64
330
2
100
AcDbEntity
  8
OBJECT
100
AcDbLine
 10
18.90192137166479
 20
31.14057228758349
 30
0.0
 11
21.5019213716649
 21
31.14057228758355
 31
0.0
  0
LINE
  5
65
330
2
100
AcDbEntity
  8
OBJECT
100
AcDbLine
 10
18.60192137166481
 20
33.34057228758348
 30
0.0
 11
21.5019213716649
 21
33.34057228758348
 31
0.0
  0
LINE
  5
66
330
2
100
AcDbEntity
  8
OBJECT
100
AcDbLine
 10
18.90192137166479
 20
33.64057228758349
 30
0.0
 11
21.5019213716649
 21
33.64057228758355
 31
0.0
  0
LINE
  5
67
330
2
100
AcDbEntity
  8
OBJECT
100
AcDbLine
 10
18.60192137166481
 20
27.44057228758353
 30
0.0
 11
21.5019213716649
 21
27.44057228758353
 31
0.0
  0
LINE
  5
68
330
2
100
AcDbEntity
  8
OBJECT
100
AcDbLine
 10
18.90192137166485
 20
27.14057228758352
 30
0.0
 11
21.5019213716649
 21
27.14057228758355
 31
0.0
  0
LINE
  5
69
330
2
100
AcDbEntity
  8
OBJECT
100
AcDbLine
 10
18.90192137166479
 20
28.64057228758352
 30
0.0
 11
21.5019213716649
 21
28.64057228758358
 31
0.0
  0
LINE
  5
6A
330
2
100
AcDbEntity
  8
OBJECT
100
AcDbLine
 10
18.60192137166481
 20
28.34057228758351
 30
0.0
 11
21.5019213716649
 21
28.34057228758351
 31
0.0
  0
LINE
  5
6B
330
2
100
AcDbEntity
  8
OBJECT
100
AcDbLine
 10
18.90192137166485
 20
29.64057228758352
 30
0.0
 11
21.5019213716649
 21
29.64057228758355
 31
0.0
  0
LINE
  5
6C
330
2
100
AcDbEntity
  8
OBJECT
100
AcDbLine
 10
18.60192137166481
 20
29.94057228758353
 30
0.0
 11
21.5019213716649
 21
29.94057228758353
 31
0.0
  0
LINE
  5
6D
330
2
100
AcDbEntity
  8
OBJECT
100
AcDbLine
 10
18.60192137166481
 20
25.84057228758351
 30
0.0
 11
21.5019213716649
 21
25.84057228758351
 31
0.0
  0
LINE
  5
6E
330
2
100
AcDbEntity
  8
OBJECT
100
AcDbLine
 10
18.90192137166479
 20
26.14057228758352
 30
0.0
 11
21.5019213716649
 21
26.14057228758358
 31
0.0
  0
LINE
  5
6F
330
2
100
AcDbEntity
  8
OBJECT
100
AcDbLine
 10
18.90192137166485
 20
28.64057228758355
 30
0.0
 11
18.60192137166484
 21
28.34057228758351
 31
0.0
  0
LINE
  5
70
330
2
100
AcDbEntity
  8
OBJECT
100
AcDbLine
 10
18.90192137166485
 20
24.64057228758338
 30
0.0
 11
18.60192137166484
 21
24.94057228758342
 31
0.0
  0
LINE
  5
71
330
2
100
AcDbEntity
  8
OBJECT
100
AcDbLine
 10
18.60192137166481
 20
27.44057228758353
 30
0.0
 11
18.90192137166485
 21
27.14057228758355
 31
0.0
  0
LINE
  5
72
330
2
100
AcDbEntity
  8
OBJECT
100
AcDbLine
 10
18.90192137166485
 20
26.14057228758355
 30
0.0
 11
18.60192137166484
 21
25.84057228758351
 31
0.0
  0
LINE
  5
73
330
2
100
AcDbEntity
  8
OBJECT
100
AcDbLine
 10
18.60192137166481
 20
34.9405722875835
 30
0.0
 11
18.90192137166485
 21
34.64057228758352
 31
0.0
  0
LINE
  5
74
330
2
100
AcDbEntity
  8
OBJECT
100
AcDbLine
 10
18.60192137166481
 20
32.4405722875835
 30
0.0
 11
18.90192137166485
 21
32.14057228758352
 31
0.0
  0
LINE
  5
75
330
2
100
AcDbEntity
  8
OBJECT
100
AcDbLine
 10
18.90192137166485
 20
33.64057228758352
 30
0.0
 11
18.60192137166484
 21
33.34057228758348
 31
0.0
  0
LINE
  5
76
330
2
100
AcDbEntity
  8
OBJECT
100
AcDbLine
 10
18.90192137166485
 20
31.14057228758352
 30
0.0
 11
18.60192137166484
 21
30.84057228758348
 31
0.0
  0
LINE
  5
77
330
2
100
AcDbEntity
  8
OBJECT
100
AcDbLine
 10
18.60192137166481
 20
29.94057228758353
 30
0.0
 11
18.90192137166485
 21
29.64057228758355
 31
0.0
  0
LINE
  5
78
330
2
100
AcDbEntity
  8
OBJECT
100
AcDbLine
 10
20.50192137166493
 20
29.94057228758353
 30
0.0
 11
20.50192137166493
 21
28.34057228758351
 31
0.0
  0
LINE
  5
79
330
2
100
AcDbEntity
  8
OBJECT
100
AcDbLine
 10
21.50192137166493
 20
29.94057228758353
 30
0.0
 11
21.50192137166493
 21
28.34057228758351
 31
0.0
  0
LINE
  5
7A
330
2
100
AcDbEntity
  8
OBJECT
100
AcDbLine
 10
21.50192137166493
 20
27.44057228758353
 30
0.0
 11
21.50192137166493
 21
25.84057228758351
 31
0.0
  0
LINE
  5
7B
330
2
100
AcDbEntity
  8
OBJECT
100
AcDbLine
 10
20.50192137166493
 20
27.44057228758353
 30
0.0
 11
20.50192137166493
 21
25.84057228758351
 31
0.0
  0
LINE
  5
7C
330
2
100
AcDbEntity
  8
OBJECT
100
AcDbLine
 10
21.50192137166493
 20
34.9405722875835
 30
0.0
 11
21.50192137166493
 21
33.34057228758348
 31
0.0
  0
LINE
  5
7D
330
2
100
AcDbEntity
  8
OBJECT
100
AcDbLine
 10
20.50192137166493
 20
34.9405722875835
 30
0.0
 11
20.50192137166493
 21
33.34057228758348
 31
0.0
  0
LINE
  5
7E
330
2
100
AcDbEntity
  8
OBJECT
100
AcDbLine
 10
21.50192137166493
 20
32.29057228758347
 30
0.0
 11
22.90192137166491
 21
32.29057228758347
 31
0.0
  0
LINE
  5
7F
330
2
100
AcDbEntity
  8
OBJECT
100
AcDbLine
 10
21.50192137166493
 20
33.49057228758346
 30
0.0
 11
22.90192137166491
 21
33.49057228758346
 31
0.0
  0
ARC
  5
80
330
2
100
AcDbEntity
  8
OBJECT
100
AcDbCircle
 10
22.10192137166494
 20
32.89057228758347
 30
0.0
 40
0.9999999999999829
100
AcDbArc
 50
323.1301023541569
 51
36.86989764584434
  0
LINE
  5
81
330
2
100
AcDbEntity
  8
OBJECT
100
AcDbLine
 10
21.50192137166493
 20
32.4405722875835
 30
0.0
 11
21.50192137166493
 21
30.84057228758348
 31
0.0
  0
LINE
  5
82
330
2
100
AcDbEntity
  8
OBJECT
100
AcDbLine
 10
20.50192137166493
 20
32.4405722875835
 30
0.0
 11
20.50192137166493
 21
30.84057228758348
 31
0.0
  0
LINE
  5
83
330
2
100
AcDbEntity
  8
OBJECT
100
AcDbLine
 10
23.10192137166489
 20
38.94057228758356
 30
0.0
 11
14.10192137166487
 21
38.94057228758351
 31
0.0
  0
LINE
  5
84
330
2
100
AcDbEntity
  8
OBJECT
100
AcDbLine
 10
22.90192137166491
 20
39.14057228758352
 30
0.0
 11
14.10192137166487
 21
39.14057228758349
 31
0.0
  0
LINE
  5
85
330
2
100
AcDbEntity
  8
OBJECT
100
AcDbLine
 10
18.90192137166479
 20
36.14057228758346
 30
0.0
 11
21.5019213716649
 21
36.14057228758352
 31
0.0
  0
LINE
  5
86
330
2
100
AcDbEntity
  8
OBJECT
100
AcDbLine
 10
18.90192137166485
 20
37.14057228758346
 30
0.0
 11
21.5019213716649
 21
37.14057228758349
 31
0.0
  0
LINE
  5
87
330
2
100
AcDbEntity
  8
OBJECT
100
AcDbLine
 10
18.60192137166481
 20
37.44057228758348
 30
0.0
 11
21.5019213716649
 21
37.44057228758348
 31
0.0
  0
LINE
  5
88
330
2
100
AcDbEntity
  8
OBJECT
100
AcDbLine
 10
18.60192137166481
 20
35.84057228758345
 30
0.0
 11
21.5019213716649
 21
35.84057228758345
 31
0.0
  0
LINE
  5
89
330
2
100
AcDbEntity
  8
OBJECT
100
AcDbLine
 10
13.60305295429492
 20
38.64397422370592
 30
0.0
 11
12.10305295429492
 21
39.39397422370592
 31
0.0
  0
LINE
  5
8A
330
2
100
AcDbEntity
  8
OBJECT
100
AcDbLine
 10
12.10305295429492
 20
37.89397422370592
 30
0.0
 11
13.60305295429492
 21
38.64397422370592
 31
0.0
  0
LINE
  5
8B
330
2
100
AcDbEntity
  8
OBJECT
100
AcDbLine
 10
12.10305295429495
 20
37.89397422370595
 30
0.0
 11
12.10305295429495
 21
39.39397422370589
 31
0.0
  0
LINE
  5
8C
330
2
100
AcDbEntity
  8
OBJECT
100
AcDbLine
 10
14.1019213716649
 20
40.24057228758349
 30
0.0
 11
14.10192137166487
 21
36.64057228758347
 31
0.0
  0
LINE
  5
8D
330
2
100
AcDbEntity
  8
OBJECT
100
AcDbLine
 10
14.10192137166487
 20
36.64057228758349
 30
0.0
 11
12.1019213716649
 21
36.64057228758349
 31
0.0
  0
LINE
  5
8E
330
2
100
AcDbEntity
  8
OBJECT
100
AcDbLine
 10
18.60192137166481
 20
37.44057228758348
 30
0.0
 11
18.90192137166485
 21
37.14057228758349
 31
0.0
  0
LINE
  5
8F
330
2
100
AcDbEntity
  8
OBJECT
100
AcDbLine
 10
18.90192137166485
 20
36.14057228758349
 30
0.0
 11
18.60192137166484
 21
35.84057228758345
 31
0.0
  0
LINE
  5
90
330
2
100
AcDbEntity
  8
OBJECT
100
AcDbLine
 10
22.90192137166491
 20
39.14057228758352
 30
0.0
 11
23.10192137166489
 21
38.94057228758353
 31
0.0
  0
LINE
  5
91
330
2
100
AcDbEntity
  8
OBJECT
100
AcDbLine
 10
20.50192137166493
 20
37.44057228758348
 30
0.0
 11
20.50192137166493
 21
35.84057228758345
 31
0.0
  0
LINE
  5
92
330
2
100
AcDbEntity
  8
OBJECT
100
AcDbLine
 10
21.50192137166493
 20
37.44057228758348
 30
0.0
 11
21.50192137166493
 21
35.84057228758345
 31
0.0
  0
LINE
  5
93
330
2
100
AcDbEntity
  8
OBJECT
 48
10.0
100
AcDbLine
 10
45.80763318025714
 20
11.64057228758355
 30
0.0
 11
45.80763318025691
 21
39.14057228758361
 31
0.0
  0
LINE
  5
94
330
2
100
AcDbEntity
  8
OBJECT
 48
10.0
100
AcDbLine
 10
55.00763318025673
 20
11.64057228758355
 30
0.0
 11
55.00763318025696
 21
39.14057228758361
 31
0.0
  0
LINE
  5
95
330
2
100
AcDbEntity
  8
OBJECT
 48
10.0
100
AcDbLine
 10
44.70763318025666
 20
25.39057228758349
 30
0.0
 11
44.70763318025677
 21
10.54057228758352
 31
0.0
  0
LINE
  5
96
330
2
100
AcDbEntity
  8
OBJECT
 48
10.0
100
AcDbLine
 10
57.50763318025696
 20
25.39057228758349
 30
0.0
 11
57.50763318025696
 21
18.14057228758349
 31
0.0
  0
LINE
  5
97
330
2
100
AcDbEntity
  8
OBJECT
 48
10.0
100
AcDbLine
 10
55.50763318025696
 20
24.14057228758343
 30
0.0
 11
55.50763318025707
 21
19.14057228758343
 31
0.0
  0
LINE
  5
98
330
2
100
AcDbEntity
  8
OBJECT
 48
10.0
100
AcDbLine
 10
57.00763318025696
 20
25.39057228758349
 30
0.0
 11
57.00763318025696
 21
22.89057228758343
 31
0.0
  0
LINE
  5
99
330
2
100
AcDbEntity
  8
OBJECT
 48
10.0
100
AcDbLine
 10
49.75763318025707
 20
10.84057228758336
 30
0.0
 11
51.05763318025691
 21
10.84057228758336
 31
0.0
  0
LINE
  5
9A
330
2
100
AcDbEntity
  8
OBJECT
 48
10.0
100
AcDbLine
 10
45.80763318025714
 20
11.64057228758355
 30
0.0
 11
55.00763318025673
 21
11.64057228758355
 31
0.0
  0
TEXT
  5
9B
330
2
100
AcDbEntity
  8
TEXT
100
AcDbText
 10
39.59077832717218
 20
13.56308720891453
 30
0.0
 40
1.5
  1
19
100
AcDbText
  0
LINE
  5
9E
330
2
100
AcDbEntity
  8
OBJECT
 48
10.0
100
AcDbLine
 10
44.70763318025677
 20
10.54057228758352
 30
0.0
 11
48.3076331802568
 21
10.54057228758352
 31
0.0
  0
LINE
  5
9F
330
2
100
AcDbEntity
  8
OBJECT
 48
10.0
100
AcDbLine
 10
48.3076331802568
 20
11.64057228758343
 30
0.0
 11
48.3076331802568
 21
10.54057228758347
 31
0.0
  0
LINE
  5
A0
330
2
100
AcDbEntity
  8
OBJECT
 48
10.0
100
AcDbLine
 10
49.75763318025707
 20
11.64057228758338
 30
0.0
 11
49.75763318025696
 21
10.84057228758336
 31
0.0
  0
LINE
  5
A1
330
2
100
AcDbEntity
  8
OBJECT
 48
10.0
100
AcDbLine
 10
45.30763318025691
 20
18.34057228758348
 30
0.0
 11
45.30763318025691
 21
17.44057228758345
 31
0.0
  0
LINE
  5
A2
330
2
100
AcDbEntity
  8
OBJECT
 48
10.0
100
AcDbLine
 10
45.30763318025702
 20
17.44057228758345
 30
0.0
 11
45.80763318025691
 21
17.4405722875835
 31
0.0
  0
LINE
  5
A3
330
2
100
AcDbEntity
  8
OBJECT
 48
10.0
100
AcDbLine
 10
44.70763318025677
 20
14.14057228758355
 30
0.0
 11
45.80763318025691
 21
14.14057228758355
 31
0.0
  0
LWPOLYLINE
  5
A4
330
2
100
AcDbEntity
  8
OBJECT
 48
10.0
100
AcDbPolyline
 90
        4
 70
     1
 43
0.0
 10
47.90763318025693
 20
17.04057228758341
 10
48.70763318025689
 20
17.04057228758341
 10
48.70763318025689
 20
16.2405722875834
 10
47.90763318025693
 20
16.2405722875834
  0
LWPOLYLINE
  5
A5
330
2
100
AcDbEntity
  8
OBJECT
 48
10.0
100
AcDbPolyline
 90
        4
 70
     1
 43
0.0
 10
47.90763318025693
 20
14.54057228758341
 10
48.70763318025689
 20
14.54057228758341
 10
48.70763318025689
 20
13.7405722875834
 10
47.90763318025693
 20
13.7405722875834
  0
LINE
  5
A6
330
2
100
AcDbEntity
  8
OBJECT
 48
10.0
100
AcDbLine
 10
45.30763318025691
 20
18.34057228758348
 30
0.0
 11
45.80763318025702
 21
18.34057228758342
 31
0.0
  0
LWPOLYLINE
  5
A7
330
2
100
AcDbEntity
  8
OBJECT
 48
10.0
100
AcDbPolyline
 90
        4
 70
     1
 43
0.0
 10
47.90763318025705
 20
22.04057228758341
 10
48.70763318025701
 20
22.04057228758341
 10
48.70763318025701
 20
21.2405722875834
 10
47.90763318025705
 20
21.2405722875834
  0
LWPOLYLINE
  5
A8
330
2
100
AcDbEntity
  8
OBJECT
 48
10.0
100
AcDbPolyline
 90
        4
 70
     1
 43
0.0
 10
47.90763318025705
 20
19.54057228758341
 10
48.70763318025701
 20
19.54057228758341
 10
48.70763318025701
 20
18.7405722875834
 10
47.90763318025705
 20
18.7405722875834
  0
LINE
  5
A9
330
2
100
AcDbEntity
  8
OBJECT
 48
10.0
100
AcDbLine
 10
56.1076331802571
 20
16.64057228758343
 30
0.0
 11
56.1076331802571
 21
10.54057228758352
 31
0.0
  0
TEXT
  5
AA
330
2
100
AcDbEntity
  8
TEXT
100
AcDbText
 10
59.09245517111571
 20
13.56308720891453
 30
0.0
 40
1.5
  1
20
100
AcDbText
  0
LINE
  5
AB
330
2
100
AcDbEntity
  8
OBJECT
 48
10.0
100
AcDbLine
 10
56.1076331802571
 20
10.54057228758352
 30
0.0
 11
52.50763318025708
 21
10.54057228758352
 31
0.0
  0
LINE
  5
AC
330
2
100
AcDbEntity
  8
OBJECT
 48
10.0
100
AcDbLine
 10
51.05763318025691
 20
11.64057228758338
 30
0.0
 11
51.05763318025691
 21
10.84057228758336
 31
0.0
  0
LINE
  5
AD
330
2
100
AcDbEntity
  8
OBJECT
 48
10.0
100
AcDbLine
 10
52.50763318025708
 20
11.64057228758343
 30
0.0
 11
52.50763318025708
 21
10.54057228758347
 31
0.0
  0
LWPOLYLINE
  5
AE
330
2
100
AcDbEntity
  8
OBJECT
 48
10.0
100
AcDbPolyline
 90
        4
 70
     1
 43
0.0
 10
52.90763318025693
 20
17.04057228758341
 10
52.10763318025698
 20
17.04057228758341
 10
52.10763318025698
 20
16.2405722875834
 10
52.90763318025693
 20
16.2405722875834
  0
LWPOLYLINE
  5
AF
330
2
100
AcDbEntity
  8
OBJECT
 48
10.0
100
AcDbPolyline
 90
        4
 70
     1
 43
0.0
 10
52.90763318025693
 20
14.54057228758341
 10
52.10763318025698
 20
14.54057228758341
 10
52.10763318025698
 20
13.7405722875834
 10
52.90763318025693
 20
13.7405722875834
  0
LINE
  5
B0
330
2
100
AcDbEntity
  8
OBJECT
 48
10.0
100
AcDbLine
 10
55.50763318025684
 20
16.64057228758349
 30
0.0
 11
57.50763318025696
 21
16.64057228758349
 31
0.0
  0
LINE
  5
B1
330
2
100
AcDbEntity
  8
OBJECT
 48
10.0
100
AcDbLine
 10
55.50763318025684
 20
17.09057228758337
 30
0.0
 11
55.50763318025684
 21
16.19057228758345
 31
0.0
  0
LINE
  5
B2
330
2
100
AcDbEntity
  8
OBJECT
 48
10.0
100
AcDbLine
 10
57.50763318025696
 20
17.64057228758349
 30
0.0
 11
57.50763318025696
 21
16.64057228758349
 31
0.0
  0
LINE
  5
B3
330
2
100
AcDbEntity
  8
OBJECT
 48
10.0
100
AcDbLine
 10
55.00763318025696
 20
17.64057228758349
 30
0.0
 11
57.50763318025696
 21
17.64057228758349
 31
0.0
  0
LINE
  5
B4
330
2
100
AcDbEntity
  8
OBJECT
 48
10.0
100
AcDbLine
 10
55.00763318025696
 20
16.19057228758345
 30
0.0
 11
55.50763318025684
 21
16.19057228758345
 31
0.0
  0
LINE
  5
B5
330
2
100
AcDbEntity
  8
OBJECT
 48
10.0
100
AcDbLine
 10
55.00763318025696
 20
17.09057228758337
 30
0.0
 11
55.50763318025684
 21
17.09057228758337
 31
0.0
  0
LINE
  5
B6
330
2
100
AcDbEntity
  8
OBJECT
 48
10.0
100
AcDbLine
 10
56.1076331802571
 20
14.14057228758355
 30
0.0
 11
55.00763318025696
 21
14.14057228758355
 31
0.0
  0
LWPOLYLINE
  5
B7
330
2
100
AcDbEntity
  8
OBJECT
 48
10.0
100
AcDbPolyline
 90
        4
 70
     1
 43
0.0
 10
52.90763318025682
 20
22.04057228758341
 10
52.10763318025687
 20
22.04057228758341
 10
52.10763318025687
 20
21.2405722875834
 10
52.90763318025682
 20
21.2405722875834
  0
LWPOLYLINE
  5
B8
330
2
100
AcDbEntity
  8
OBJECT
 48
10.0
100
AcDbPolyline
 90
        4
 70
     1
 43
0.0
 10
52.90763318025682
 20
19.54057228758341
 10
52.10763318025687
 20
19.54057228758341
 10
52.10763318025687
 20
18.7405722875834
 10
52.90763318025682
 20
18.7405722875834
  0
LINE
  5
B9
330
2
100
AcDbEntity
  8
OBJECT
 48
10.0
100
AcDbLine
 10
56.50763318025695
 20
22.89057228758343
 30
0.0
 11
56.50763318025695
 21
20.39057228758343
 31
0.0
  0
LINE
  5
BA
330
2
100
AcDbEntity
  8
OBJECT
 48
10.0
100
AcDbLine
 10
56.50763318025695
 20
20.39057228758338
 30
0.0
 11
57.00763318025696
 21
20.39057228758338
 31
0.0
  0
LINE
  5
BB
330
2
100
AcDbEntity
  8
OBJECT
 48
10.0
100
AcDbLine
 10
56.50763318025695
 20
22.89057228758343
 30
0.0
 11
57.00763318025696
 21
22.89057228758343
 31
0.0
  0
LINE
  5
BC
330
2
100
AcDbEntity
  8
OBJECT
 48
10.0
100
AcDbLine
 10
55.50763318025707
 20
19.14057228758343
 30
0.0
 11
57.00763318025696
 21
19.14057228758343
 31
0.0
  0
LINE
  5
BD
330
2
100
AcDbEntity
  8
OBJECT
 48
10.0
100
AcDbLine
 10
57.00763318025696
 20
20.39057228758343
 30
0.0
 11
57.00763318025696
 21
18.14057228758349
 31
0.0
  0
LINE
  5
BE
330
2
100
AcDbEntity
  8
OBJECT
 48
10.0
100
AcDbLine
 10
55.00763318025696
 20
18.14057228758349
 30
0.0
 11
57.50763318025696
 21
18.14057228758349
 31
0.0
  0
LINE
  5
BF
330
2
100
AcDbEntity
  8
OBJECT
 48
10.0
100
AcDbLine
 10
49.75763318025707
 20
39.94057228758368
 30
0.0
 11
51.05763318025691
 21
39.94057228758368
 31
0.0
  0
LINE
  5
C0
330
2
100
AcDbEntity
  8
OBJECT
 48
10.0
100
AcDbLine
 10
45.80763318025691
 20
39.14057228758361
 30
0.0
 11
55.00763318025696
 21
39.14057228758361
 31
0.0
  0
LINE
  5
C1
330
2
100
AcDbEntity
  8
OBJECT
 48
10.0
100
AcDbLine
 10
44.70763318025666
 20
25.39057228758349
 30
0.0
 11
44.70763318025677
 21
40.24057228758358
 31
0.0
  0
LWPOLYLINE
  5
C2
330
2
100
AcDbEntity
  8
OBJECT
 48
10.0
100
AcDbPolyline
 90
        4
 70
     1
 43
0.0
 10
47.90763318025705
 20
28.74057228758357
 10
48.70763318025701
 20
28.74057228758357
 10
48.70763318025701
 20
29.54057228758358
 10
47.90763318025705
 20
29.54057228758358
  0
LWPOLYLINE
  5
C3
330
2
100
AcDbEntity
  8
OBJECT
 48
10.0
100
AcDbPolyline
 90
        4
 70
     1
 43
0.0
 10
47.90763318025705
 20
26.24057228758357
 10
48.70763318025701
 20
26.24057228758357
 10
48.70763318025701
 20
27.04057228758358
 10
47.90763318025705
 20
27.04057228758358
  0
LWPOLYLINE
  5
C4
330
2
100
AcDbEntity
  8
OBJECT
 48
10.0
100
AcDbPolyline
 90
        4
 70
     1
 43
0.0
 10
47.90763318025705
 20
24.54057228758341
 10
48.70763318025701
 20
24.54057228758341
 10
48.70763318025701
 20
23.7405722875834
 10
47.90763318025705
 20
23.7405722875834
  0
LINE
  5
C5
330
2
100
AcDbEntity
  8
OBJECT
 48
10.0
100
AcDbLine
 10
45.30763318025691
 20
32.4405722875835
 30
0.0
 11
45.30763318025691
 21
33.34057228758354
 31
0.0
  0
LINE
  5
C6
330
2
100
AcDbEntity
  8
OBJECT
 48
10.0
100
AcDbLine
 10
45.30763318025691
 20
32.44057228758356
 30
0.0
 11
45.80763318025702
 21
32.44057228758356
 31
0.0
  0
LINE
  5
C7
330
2
100
AcDbEntity
  8
OBJECT
 48
10.0
100
AcDbLine
 10
45.30763318025702
 20
33.34057228758354
 30
0.0
 11
45.80763318025691
 21
33.34057228758348
 31
0.0
  0
LWPOLYLINE
  5
C8
330
2
100
AcDbEntity
  8
OBJECT
 48
10.0
100
AcDbPolyline
 90
        4
 70
     1
 43
0.0
 10
47.90763318025693
 20
33.74057228758357
 10
48.70763318025689
 20
33.74057228758357
 10
48.70763318025689
 20
34.54057228758358
 10
47.90763318025693
 20
34.54057228758358
  0
LWPOLYLINE
  5
C9
330
2
100
AcDbEntity
  8
OBJECT
 48
10.0
100
AcDbPolyline
 90
        4
 70
     1
 43
0.0
 10
47.90763318025705
 20
31.24057228758357
 10
48.70763318025701
 20
31.24057228758357
 10
48.70763318025701
 20
32.04057228758358
 10
47.90763318025705
 20
32.04057228758358
  0
TEXT
  5
CA
330
2
100
AcDbEntity
  8
TEXT
100
AcDbText
 10
40.13682547533647
 20
36.22837286265934
 30
0.0
 40
1.5
  1
1
100
AcDbText
  0
LINE
  5
CB
330
2
100
AcDbEntity
  8
OBJECT
 48
10.0
100
AcDbLine
 10
44.70763318025677
 20
40.24057228758358
 30
0.0
 11
48.3076331802568
 21
40.24057228758351
 31
0.0
  0
LINE
  5
CC
330
2
100
AcDbEntity
  8
OBJECT
 48
10.0
100
AcDbLine
 10
44.70763318025677
 20
36.64057228758355
 30
0.0
 11
45.80763318025691
 21
36.64057228758355
 31
0.0
  0
LWPOLYLINE
  5
CD
330
2
100
AcDbEntity
  8
OBJECT
 48
10.0
100
AcDbPolyline
 90
        4
 70
     1
 43
0.0
 10
47.90763318025693
 20
36.24057228758357
 10
48.70763318025689
 20
36.24057228758357
 10
48.70763318025689
 20
37.04057228758358
 10
47.90763318025693
 20
37.04057228758358
  0
LINE
  5
CE
330
2
100
AcDbEntity
  8
OBJECT
 48
10.0
100
AcDbLine
 10
48.3076331802568
 20
39.14057228758366
 30
0.0
 11
48.3076331802568
 21
40.24057228758358
 31
0.0
  0
LINE
  5
CF
330
2
100
AcDbEntity
  8
OBJECT
 48
10.0
100
AcDbLine
 10
49.75763318025707
 20
39.14057228758366
 30
0.0
 11
49.75763318025696
 21
39.94057228758368
 31
0.0
  0
LINE
  5
D0
330
2
100
AcDbEntity
  8
OBJECT
 48
10.0
100
AcDbLine
 10
56.1076331802571
 20
34.14057228758355
 30
0.0
 11
56.1076331802571
 21
40.24057228758358
 31
0.0
  0
LWPOLYLINE
  5
D1
330
2
100
AcDbEntity
  8
OBJECT
 48
10.0
100
AcDbPolyline
 90
        4
 70
     1
 43
0.0
 10
52.90763318025682
 20
28.74057228758357
 10
52.10763318025687
 20
28.74057228758357
 10
52.10763318025687
 20
29.54057228758358
 10
52.90763318025682
 20
29.54057228758358
  0
LINE
  5
D2
330
2
100
AcDbEntity
  8
OBJECT
 48
10.0
100
AcDbLine
 10
55.50763318025696
 20
26.64057228758355
 30
0.0
 11
55.50763318025707
 21
31.64057228758361
 31
0.0
  0
LINE
  5
D3
330
2
100
AcDbEntity
  8
OBJECT
 48
10.0
100
AcDbLine
 10
56.50763318025695
 20
27.89057228758355
 30
0.0
 11
56.50763318025695
 21
30.39057228758361
 31
0.0
  0
LINE
  5
D4
330
2
100
AcDbEntity
  8
OBJECT
 48
10.0
100
AcDbLine
 10
57.50763318025696
 20
25.39057228758355
 30
0.0
 11
57.50763318025696
 21
32.64057228758349
 31
0.0
  0
LWPOLYLINE
  5
D5
330
2
100
AcDbEntity
  8
OBJECT
 48
10.0
100
AcDbPolyline
 90
        4
 70
     1
 43
0.0
 10
52.90763318025682
 20
26.24057228758357
 10
52.10763318025687
 20
26.24057228758357
 10
52.10763318025687
 20
27.04057228758358
 10
52.90763318025682
 20
27.04057228758358
  0
LWPOLYLINE
  5
D6
330
2
100
AcDbEntity
  8
OBJECT
 48
10.0
100
AcDbPolyline
 90
        4
 70
     1
 43
0.0
 10
52.90763318025682
 20
24.54057228758341
 10
52.10763318025687
 20
24.54057228758341
 10
52.10763318025687
 20
23.7405722875834
 10
52.90763318025682
 20
23.7405722875834
  0
LINE
  5
D7
330
2
100
AcDbEntity
  8
OBJECT
 48
10.0
100
AcDbLine
 10
55.50763318025696
 20
24.14057228758343
 30
0.0
 11
57.00763318025696
 21
24.14057228758338
 31
0.0
  0
LINE
  5
D8
330
2
100
AcDbEntity
  8
OBJECT
 48
10.0
100
AcDbLine
 10
56.50763318025695
 20
27.89057228758355
 30
0.0
 11
57.00763318025696
 21
27.89057228758361
 31
0.0
  0
LINE
  5
D9
330
2
100
AcDbEntity
  8
OBJECT
 48
10.0
100
AcDbLine
 10
55.50763318025696
 20
26.64057228758361
 30
0.0
 11
57.00763318025696
 21
26.64057228758361
 31
0.0
  0
LINE
  5
DA
330
2
100
AcDbEntity
  8
OBJECT
 48
10.0
100
AcDbLine
 10
57.00763318025696
 20
25.39057228758355
 30
0.0
 11
57.00763318025696
 21
27.89057228758355
 31
0.0
  0
LWPOLYLINE
  5
DB
330
2
100
AcDbEntity
  8
OBJECT
 48
10.0
100
AcDbPolyline
 90
        4
 70
     1
 43
0.0
 10
52.90763318025693
 20
33.74057228758357
 10
52.10763318025698
 20
33.74057228758357
 10
52.10763318025698
 20
34.54057228758358
 10
52.90763318025693
 20
34.54057228758358
  0
LWPOLYLINE
  5
DC
330
2
100
AcDbEntity
  8
OBJECT
 48
10.0
100
AcDbPolyline
 90
        4
 70
     1
 43
0.0
 10
52.90763318025682
 20
31.24057228758357
 10
52.10763318025687
 20
31.24057228758357
 10
52.10763318025687
 20
32.04057228758358
 10
52.90763318025682
 20
32.04057228758358
  0
LINE
  5
DD
330
2
100
AcDbEntity
  8
OBJECT
 48
10.0
100
AcDbLine
 10
55.50763318025684
 20
34.14057228758349
 30
0.0
 11
57.50763318025696
 21
34.14057228758355
 31
0.0
  0
LINE
  5
DE
330
2
100
AcDbEntity
  8
OBJECT
 48
10.0
100
AcDbLine
 10
55.50763318025684
 20
33.69057228758362
 30
0.0
 11
55.50763318025684
 21
34.59057228758359
 31
0.0
  0
LINE
  5
DF
330
2
100
AcDbEntity
  8
OBJECT
 48
10.0
100
AcDbLine
 10
57.50763318025696
 20
33.14057228758349
 30
0.0
 11
57.50763318025696
 21
34.14057228758355
 31
0.0
  0
LINE
  5
E0
330
2
100
AcDbEntity
  8
OBJECT
 48
10.0
100
AcDbLine
 10
55.00763318025696
 20
32.64057228758355
 30
0.0
 11
57.50763318025696
 21
32.64057228758355
 31
0.0
  0
LINE
  5
E1
330
2
100
AcDbEntity
  8
OBJECT
 48
10.0
100
AcDbLine
 10
55.00763318025696
 20
33.14057228758355
 30
0.0
 11
57.50763318025696
 21
33.14057228758355
 31
0.0
  0
LINE
  5
E2
330
2
100
AcDbEntity
  8
OBJECT
 48
10.0
100
AcDbLine
 10
55.00763318025696
 20
33.69057228758362
 30
0.0
 11
55.50763318025684
 21
33.69057228758362
 31
0.0
  0
LINE
  5
E3
330
2
100
AcDbEntity
  8
OBJECT
 48
10.0
100
AcDbLine
 10
55.00763318025696
 20
34.59057228758359
 30
0.0
 11
55.50763318025684
 21
34.59057228758354
 31
0.0
  0
LINE
  5
E4
330
2
100
AcDbEntity
  8
OBJECT
 48
10.0
100
AcDbLine
 10
56.50763318025695
 20
30.39057228758366
 30
0.0
 11
57.00763318025696
 21
30.39057228758361
 31
0.0
  0
LINE
  5
E5
330
2
100
AcDbEntity
  8
OBJECT
 48
10.0
100
AcDbLine
 10
55.50763318025707
 20
31.64057228758355
 30
0.0
 11
57.00763318025696
 21
31.64057228758355
 31
0.0
  0
LINE
  5
E6
330
2
100
AcDbEntity
  8
OBJECT
 48
10.0
100
AcDbLine
 10
57.00763318025696
 20
30.39057228758361
 30
0.0
 11
57.00763318025696
 21
32.64057228758349
 31
0.0
  0
LINE
  5
E7
330
2
100
AcDbEntity
  8
OBJECT
 48
10.0
100
AcDbLine
 10
56.1076331802571
 20
40.24057228758358
 30
0.0
 11
52.50763318025708
 21
40.24057228758351
 31
0.0
  0
LINE
  5
E8
330
2
100
AcDbEntity
  8
OBJECT
 48
10.0
100
AcDbLine
 10
51.05763318025691
 20
39.14057228758366
 30
0.0
 11
51.05763318025691
 21
39.94057228758368
 31
0.0
  0
LWPOLYLINE
  5
E9
330
2
100
AcDbEntity
  8
OBJECT
 48
10.0
100
AcDbPolyline
 90
        4
 70
     1
 43
0.0
 10
52.90763318025693
 20
36.24057228758357
 10
52.10763318025698
 20
36.24057228758357
 10
52.10763318025698
 20
37.04057228758358
 10
52.90763318025693
 20
37.04057228758358
  0
LINE
  5
EA
330
2
100
AcDbEntity
  8
OBJECT
 48
10.0
100
AcDbLine
 10
52.50763318025708
 20
39.14057228758366
 30
0.0
 11
52.50763318025708
 21
40.24057228758358
 31
0.0
  0
LINE
  5
EB
330
2
100
AcDbEntity
  8
OBJECT
 48
10.0
100
AcDbLine
 10
56.1076331802571
 20
36.64057228758355
 30
0.0
 11
55.00763318025696
 21
36.64057228758355
 31
0.0
  0
TEXT
  5
EC
330
2
100
AcDbEntity
  8
TEXT
100
AcDbText
 10
59.63850231927995
 20
36.64121161405086
 30
0.0
 40
1.5
  1
2
100
AcDbText
  0
TEXT
  5
ED
330
2
100
AcDbEntity
  8
OBJECT
100
AcDbText
 10
12.06358340651763
 20
55.20997303491316
 30
0.0
 40
2.5
  1
XADRP-20V　（JST）
100
AcDbText
  0
ENDSEC
  0
SECTION
  2
OBJECTS
  0
DICTIONARY
  5
7
330
0
100
AcDbDictionary
  3
ACAD_GROUP
350
22
  3
ACAD_LAYOUT
350
B
  3
ACAD_MLINESTYLE
350
23
  3
ACAD_PLOTSETTINGS
350
24
  3
ACAD_PLOTSTYLENAME
350
6
  3
ACDBHEADERROUNDTRIPXREC
350
1A4
  3
ACDBVARIABLEDICTIONARY
350
F1
  0
DICTIONARY
  5
11
330
10
100
AcDbDictionary
280
     1
  3
ACAD_LAYERFILTERS
360
F9
  3
ACAD_LAYERSTATES
360
12
  0
DICTIONARY
  5
1C5
330
2
100
AcDbDictionary
280
     1
  3
ACAD_LAYOUTSELFREF
360
1C6
  0
DICTIONARY
  5
1C7
330
C
100
AcDbDictionary
280
     1
  3
ACAD_LAYOUTSELFREF
360
1C8
  0
DICTIONARY
  5
22
102
{ACAD_REACTORS
330
7
102
}
330
7
100
AcDbDictionary
  0
DICTIONARY
  5
B
102
{ACAD_REACTORS
330
7
102
}
330
7
100
AcDbDictionary
  0
DICTIONARY
  5
23
102
{ACAD_REACTORS
330
7
102
}
330
7
100
AcDbDictionary
  3
STANDARD
350
26
  0
DICTIONARY
  5
24
102
{ACAD_REACTORS
330
7
102
}
330
7
100
AcDbDictionary
  3
B5_PDF
350
156
  0
ACDBDICTIONARYWDFLT
  5
6
102
{ACAD_REACTORS
330
7
102
}
330
7
100
AcDbDictionary
281
     1
  3
Normal
350
5
100
AcDbDictionaryWithDefault
340
5
  0
DICTIONARY
  5
1A4
102
{ACAD_REACTORS
330
7
102
}
330
7
100
AcDbDictionary
  3
CEPSNTYPE
350
1AE
  3
DIMSTYLEDATA
350
1B2
  3
FINGERPRINTGUID
350
1AF
  3
HYPERLINKBASE
350
1A7
  3
INSUNITS
350
1AD
  3
LAYOUTDICT
350
1A9
  3
LWETCUNION
350
1AC
  3
PLOTSETDICT
350
1AA
  3
PLOTSTYLNAMDICT
350
1AB
  3
PSVPSCALE
350
1B1
  3
PUCSBASE
350
1B5
  3
PUCSORGBACK
350
1BB
  3
PUCSORGBOTTOM
350
1B7
  3
PUCSORGFRONT
350
1BA
  3
PUCSORGLEFT
350
1B8
  3
PUCSORGRIGHT
350
1B9
  3
PUCSORGTOP
350
1B6
  3
PUCSORTHOREF
350
1B3
  3
PUCSORTHOVIEW
350
1B4
  3
STYLESHEET
350
1A8
  3
TSTACKALIGN
350
1A5
  3
TSTACKSIZE
350
1A6
  3
UCSBASE
350
1BE
  3
UCSORGBACK
350
1C4
  3
UCSORGBOTTOM
350
1C0
  3
UCSORGFRONT
350
1C3
  3
UCSORGLEFT
350
1C1
  3
UCSORGRIGHT
350
1C2
  3
UCSORGTOP
350
1BF
  3
UCSORTHOREF
350
1BC
  3
UCSORTHOVIEW
350
1BD
  3
VERSIONGUID
350
1B0
  0
DICTIONARY
  5
F1
102
{ACAD_REACTORS
330
7
102
}
330
7
100
AcDbDictionary
  3
DIMASSOC
350
F3
  3
HIDETEXT
350
F2
  0
DICTIONARY
  5
F9
102
{ACAD_REACTORS
330
11
102
}
330
11
100
AcDbDictionary
280
     1
  0
DICTIONARY
  5
12
102
{ACAD_REACTORS
330
11
102
}
330
11
100
AcDbDictionary
  0
XRECORD
  5
1C6
102
{ACAD_REACTORS
330
1C5
102
}
330
1C5
100
AcDbXrecord
340
2
  0
XRECORD
  5
1C8
102
{ACAD_REACTORS
330
1C7
102
}
330
1C7
100
AcDbXrecord
340
C
  0
MLINESTYLE
  5
26
102
{ACAD_REACTORS
330
23
102
}
330
23
100
AcDbMlineStyle
  2
STANDARD
 70
     0
  3

 62
   256
 51
90.0
 52
90.0
 71
     2
 49
0.5
 62
   256
  6
BYLAYER
 49
-0.5
 62
   256
  6
BYLAYER
  0
PLOTSETTINGS
  5
156
102
{ACAD_REACTORS
330
24
102
}
330
24
100
AcDbPlotSettings
  1
B5_PDF
  2
クセロPDF2
  4
B5 (JIS)
  6

 40
3.174999952316284
 41
3.174999952316284
 42
3.175003051757812
 43
3.175003051757812
 44
181.9486694335937
 45
256.9633178710937
 46
-1.0
 47
-1.0
 48
-20.94299376499753
 49
-1.579113424479771
140
94.98600065615113
141
65.95385436491631
142
1.0
143
0.4625811461081503
 70
  1680
 72
     1
 73
     1
 74
     4
  7

 75
     0
147
2.161782875098421
148
20.94299376499753
149
1.579113424479771
  0
ACDBPLACEHOLDER
  5
5
102
{ACAD_REACTORS
330
6
102
}
330
6
100
AcDbPlaceHolder
280
     0
  0
XRECORD
  5
1AE
102
{ACAD_REACTORS
330
1A4
102
}
330
1A4
100
AcDbXrecord
 90
        0
  0
XRECORD
  5
1B2
102
{ACAD_REACTORS
330
1A4
102
}
330
1A4
100
AcDbXrecord
1000
DSTYLE
1002
{
1070
    79
 70
     2
1070
   179
 70
     2
1002
}
  0
XRECORD
  5
1AF
102
{ACAD_REACTORS
330
1A4
102
}
330
1A4
100
AcDbXrecord
  1
{0A02233B-AAD1-48FA-A052-FD09929ED974}
  0
XRECORD
  5
1A7
102
{ACAD_REACTORS
330
1A4
102
}
330
1A4
100
AcDbXrecord
  1

  0
XRECORD
  5
1AD
102
{ACAD_REACTORS
330
1A4
102
}
330
1A4
100
AcDbXrecord
 90
        4
  0
XRECORD
  5
1A9
102
{ACAD_REACTORS
330
1A4
102
}
330
1A4
100
AcDbXrecord
340
B
  0
XRECORD
  5
1AC
102
{ACAD_REACTORS
330
1A4
102
}
330
1A4
100
AcDbXrecord
 90
     2589
  0
XRECORD
  5
1AA
102
{ACAD_REACTORS
330
1A4
102
}
330
1A4
100
AcDbXrecord
340
24
  0
XRECORD
  5
1AB
102
{ACAD_REACTORS
330
1A4
102
}
330
1A4
100
AcDbXrecord
340
6
  0
XRECORD
  5
1B1
102
{ACAD_REACTORS
330
1A4
102
}
330
1A4
100
AcDbXrecord
 40
0.0
  0
XRECORD
  5
1B5
102
{ACAD_REACTORS
330
1A4
102
}
330
1A4
100
AcDbXrecord
340
0
  0
XRECORD
  5
1BB
102
{ACAD_REACTORS
330
1A4
102
}
330
1A4
100
AcDbXrecord
 10
0.0
 20
0.0
 30
0.0
  0
XRECORD
  5
1B7
102
{ACAD_REACTORS
330
1A4
102
}
330
1A4
100
AcDbXrecord
 10
0.0
 20
0.0
 30
0.0
  0
XRECORD
  5
1BA
102
{ACAD_REACTORS
330
1A4
102
}
330
1A4
100
AcDbXrecord
 10
0.0
 20
0.0
 30
0.0
  0
XRECORD
  5
1B8
102
{ACAD_REACTORS
330
1A4
102
}
330
1A4
100
AcDbXrecord
 10
0.0
 20
0.0
 30
0.0
  0
XRECORD
  5
1B9
102
{ACAD_REACTORS
330
1A4
102
}
330
1A4
100
AcDbXrecord
 10
0.0
 20
0.0
 30
0.0
  0
XRECORD
  5
1B6
102
{ACAD_REACTORS
330
1A4
102
}
330
1A4
100
AcDbXrecord
 10
0.0
 20
0.0
 30
0.0
  0
XRECORD
  5
1B3
102
{ACAD_REACTORS
330
1A4
102
}
330
1A4
100
AcDbXrecord
340
0
  0
XRECORD
  5
1B4
102
{ACAD_REACTORS
330
1A4
102
}
330
1A4
100
AcDbXrecord
 70
     0
  0
XRECORD
  5
1A8
102
{ACAD_REACTORS
330
1A4
102
}
330
1A4
100
AcDbXrecord
  1

  0
XRECORD
  5
1A5
102
{ACAD_REACTORS
330
1A4
102
}
330
1A4
100
AcDbXrecord
 90
        1
  0
XRECORD
  5
1A6
102
{ACAD_REACTORS
330
1A4
102
}
330
1A4
100
AcDbXrecord
 90
       70
  0
XRECORD
  5
1BE
102
{ACAD_REACTORS
330
1A4
102
}
330
1A4
100
AcDbXrecord
340
0
  0
XRECORD
  5
1C4
102
{ACAD_REACTORS
330
1A4
102
}
330
1A4
100
AcDbXrecord
 10
0.0
 20
0.0
 30
0.0
  0
XRECORD
  5
1C0
102
{ACAD_REACTORS
330
1A4
102
}
330
1A4
100
AcDbXrecord
 10
0.0
 20
0.0
 30
0.0
  0
XRECORD
  5
1C3
102
{ACAD_REACTORS
330
1A4
102
}
330
1A4
100
AcDbXrecord
 10
0.0
 20
0.0
 30
0.0
  0
XRECORD
  5
1C1
102
{ACAD_REACTORS
330
1A4
102
}
330
1A4
100
AcDbXrecord
 10
0.0
 20
0.0
 30
0.0
  0
XRECORD
  5
1C2
102
{ACAD_REACTORS
330
1A4
102
}
330
1A4
100
AcDbXrecord
 10
0.0
 20
0.0
 30
0.0
  0
XRECORD
  5
1BF
102
{ACAD_REACTORS
330
1A4
102
}
330
1A4
100
AcDbXrecord
 10
0.0
 20
0.0
 30
0.0
  0
XRECORD
  5
1BC
102
{ACAD_REACTORS
330
1A4
102
}
330
1A4
100
AcDbXrecord
340
0
  0
XRECORD
  5
1BD
102
{ACAD_REACTORS
330
1A4
102
}
330
1A4
100
AcDbXrecord
 70
     0
  0
XRECORD
  5
1B0
102
{ACAD_REACTORS
330
1A4
102
}
330
1A4
100
AcDbXrecord
  1
{B1B72942-5A75-422F-99C8-812DEF41F88F}
  0
DICTIONARYVAR
  5
F3
102
{ACAD_REACTORS
330
F1
102
}
330
F1
100
DictionaryVariables
280
     0
  1
2
  0
DICTIONARYVAR
  5
F2
102
{ACAD_REACTORS
330
F1
102
}
330
F1
100
DictionaryVariables
280
     0
  1
1
  0
ENDSEC
  0
EOF
